Pixies - Manta Ray (solo) Chords & Tabs

 

Manta Ray (solo) Chords & Tabs

Pixies Chords & Tabs

Version: 1 Type: Tab 0 ratings
1 star 2 stars 3 stars 4 stars 5 stars
comments

Manta Ray (solo) Tab

#----------------------------------PLEASE NOTE--------------------------------#
#This file is the author's own work and represents their interpretation of the#
#song. You may only use this file for private study, scholarship, or research.#
#-----------------------------------------------------------------------------#

Date: Sun, 22 Mar 1998 18:06:16 -0500
From: Bryson Meunier 
Subject: TAB:p/pixies/manta_ray.tab

MANTA RAY
by The Pixies
from the "Monkey Gone to Heaven" single (1989)

(bass intro)


   solo:
[ Tab from: http://www.guitartabs.cc/tabs/p/pixies/manta_ray_solo_tab.html ]
   E--14b-----r-14~~~~~-14b--r----14b--r----14b--r----14b--r----|
   B---------------------------14--------14--------14--------14-|
   G------------------------------------------------------------|
   D------------------------------------------------------------|
   A------------------------------------------------------------|
   E------------------------------------------------------------|
etc...
   E-14b--r----14b--r-------------------------------------------|
   B--------14--------14----------------------------------------|
   G----------------------12-12-12-12-12-12-12-12-12-12-12-12-12|
   D------------------------------------------------------------|
   A------------------------------------------------------------|
   E------------------------------------------------------------|
Comments