Pixies - Gouge Away Chords & Tabs

 

Gouge Away Chords & Tabs

Pixies Chords & Tabs

Version: 1 Type: Bass Tab 0 ratings
1 star 2 stars 3 stars 4 stars 5 stars
comments

Gouge Away Bass Tab

   
Gouge Away

by The Pixies
tabber unknown


 [Intro, Verse]



Bass only:


           Gouge Away                       you can gouge away

a:|---------------------------------7-7-7-7-7-7-7-7-|
e:|-4-4-4-4-4-4-4-4-7-7-7-7-7-7-7-7-----------------|


           stay all day     if you  want to

a:|-----------------4-4-4-4-4-4-4-4-|
e:|-4-4-4-4-4-4-4-4-----------------|



[ Tab from: http://www.guitartabs.cc/tabs/p/pixies/gouge_away_btab.html ]
[Short Fill before Refrain]

e:|--------------4/6-/-4---4/6-/-4-|
b:|--------------------------------|
g:|--1-/-4/5-----------------------|


|Another Fill after the first Refrain]

e:|--7-6------|
b:|------7-6--|
g:|-----------|



 [Refrain]

      [Description]

        g# (4-6-6)

        b (7-9-9)

        e (7-7-9-9)

        c# (4-4-6-6)
Comments