Pixies - Gigantic Chords & Tabs

 

Gigantic Chords & Tabs

Pixies Chords & Tabs

Version: 1 Type: Tab 0 ratings
1 star 2 stars 3 stars 4 stars 5 stars
comments

Gigantic Tab

#----------------------------------PLEASE NOTE---------------------------------#
#This file is the author's own work and represents their interpretation of the #
#song. You may only use this file for private study, scholarship, or research. #
#------------------------------------------------------------------------------##
#

From: GLove1012@aol.com
Date: Thu, 8 Aug 1996 14:06:41 -0400


Song :  Gigantic
Group:  Pixies
CD   :  Surfer Rosa
[ Tab from: http://www.guitartabs.cc/tabs/p/pixies/gigantic_tab.html ]
Let ring until feedback in key of "G"
|--------------------------------------------------------------------
|--------------------------------------------------------------------
|-12-------------------------12--------------------------------------
|--------------------------------------------------------------------
|--------------------------------------------------------------------
|--------------------------------------------------------------------
|the main bassline...
|--------------------------------------------------------------------
|--------------------------------------------------------------------
|---5-5-7-7-----3-3-5-5----------------------------------------------
|-3---------7-7---------3-3------------------------------------------

lead interlude...
|--------------------------------------------------------------------
|--------------------------------------------------------------------
|----------------------------0---------------------------------------
|----------7-5\---1---2----4-----------------------------------------
|---X--3/5------2---3---/5-------------------------------------------
|-3----------------------------3-------------------------------------
|
|--------------------------------------------------------------------
|--------------------------------------------------------------------
|------------------------------0-------------------------------------
|----------4---6\---1---2----4---------------------------------------
|---X----5---5----2---3---/5-----------------------------------------
|-3------------------------------3-----------------------------------
Comments