Pixies - Ed Is Dead Chords & Tabs

 

Ed Is Dead Chords & Tabs

Pixies Chords & Tabs

Version: 1 Type: Bass Tab 0 ratings
1 star 2 stars 3 stars 4 stars 5 stars
comments

Ed Is Dead Bass Tab

   
Title: Ed is Dead
Album: come on pilgrim
bassist: (the one and only) Kim Deal
writer: black francis

G--------------------------------------------------|
D--------------------------------------------------|
A---------------33---------------------------------|
E-33-333-333-33----5-5-5-5-5-5-5-5-1-1-1-1-7-7-7-7-|


Sidenote- the first time through, the B is played on the 7th fret E string.  This is the 
way for the first time after every chorus.  After that is is played on the A string, 
fret. Like so:
[ Tab from: http://www.guitartabs.cc/tabs/p/pixies/ed_is_dead_btab.html ]
G--------------------------------------------------|
D--------------------------------------------------|
A---------------33-------------------------2-2-2-2-|
E-33-333-333-33----5-5-5-5-5-5-5-5-1-1-1-1---------|

The chords are:
G/G/G/G/C/A/A/A/A/F/F/B/B

Lyrics:
 Ed is Dead


Her head is in a bitter way
Her brain's on fire
She's just looking for the perfect wave
It's her brain's desire
I'll think of her when I walk the strand
On this true hermosa night

ha,ha,ha,ha,ha
Ed is dead (4x)

She's just riding in stupid bliss
With music on her bars uh
Her face burning in the L.A. sun
She got no got no fear of cars
I better kick my strand cruiser
To the memory of a whore
oh oh oh oh oh oh

Ed is dead (4x)

Ed is dead
Ed is, yeah Ed is
Ed is dead (3x)
E.I.D. (3x)

No, no, no, no, no
Comments