Pixies - Cecilia Ann Chords & Tabs

 

Cecilia Ann Chords & Tabs

Pixies Chords & Tabs

Version: 2 Type: Tab 0 ratings
1 star 2 stars 3 stars 4 stars 5 stars
comments

Cecilia Ann Tab

 BAND: Pixies
 SONG: Cecilia Ann
 ALBUM: Bossanova

 tabbed by Graeme Beech (gm_beech@hotmail.com)

e|----------------------------------------------------------|
B|----------------------------------------------------------|
G|----------------------------------------------------------|
D|-------------2----2-2-5----4-2-4--------------------------|
A|----2-2----2------------------------0----0-0---0--2--2-2--|
E|--0---0--------------------------------3------------------|

e|---------------------------------------------------|
B|---------------------------------------------------|
G|---------------------------------------------------|
D|---------2----2--5----4-2-4------------------------|
A|----2--2-----------------------0------0-2-0--------|
E|--0---------------------------------3-------3-2-0--|

e|---------------------------------------------|
B|-----------0-----------------------0---------|
G|----0----2---2-0-----------0-----2---2--0-2--|
D|--2--------------4-2-----2-------------------|
A|---------------------------------------------|
E|---------------------------------------------|

e|---------------------------------------------------|
B|---------------------------------------------------|
G|--4-4-4-4-2-2-2-2-0-0-0---------2-2-2-2-0-0-0-0----|
D|------------------------4-4-4-4-----------------4--|
A|---------------------------------------------------|
E|---------------------------------------------------|
[ Tab from: http://www.guitartabs.cc/tabs/p/pixies/cecilia_ann_tab_ver_2.html ]
e|-------------------------------------------------------|
B|-------------------------------------------------------|
G|-------------------------------------------------------|
D|-----------2----2--5----4-2-4--------------------------|
A|--2-2----2-----------------------0----0-0---0--2--2-2--|
E|----0-------------------------------3------------------|

e|---------------------------------------------------|
B|---------------------------------------------------|
G|---------------------------------------------------|
D|---------2----2--5----4-2-4------------------------|
A|--2-2--2-----------------------0------0-2-0--------|
E|----0-------------------------------3-------3-2-0--|

e|-------------------------------------------------------------------|
B|-------------------------------------------------------------------|
G|--5----4----2-0-------5----4---2-0---4-4-4-4-2-2-2-2-0-0-0---------|
D|----------------2-----------------------------------------4-4-4-4--|
A|-------------------------------------------------------------------|
E|-------------------------------------------------------------------|

e|---------------------|
B|--2-2-2-2-0-0-0-0----|
G|------------------4--|
D|---------------------|
A|---------------------|
E|---------------------|

e|------------------------------------------------------|
B|--(5)------5----5--8----7-5-7-------------------------|
G|--------4-----------------------2--0-2-2---2--4--4-4--|
D|------------------------------------------------------|
A|------2-----------------------------------------------|
E|------0-----------------------------------------------|

e|-------------------------------------------------------|
B|--(5)----5----5--8-----7-5-7---------------------------|
G|-------4-----------------------2----0-2-4-2-0----------|
D|----------------------------------------------4-2------|
A|----2--------------------------------------------------|
E|----0---------------------------------------------3-0--|

e|----------------------|
B|----------------------|
G|--2----0-2-4-2-0------|
D|-----------------4-2--|
A|----------------------|
E|----------------------|
Comments