Pixies - Cecilia Ann Chords & Tabs

 

Cecilia Ann Chords & Tabs

Pixies Chords & Tabs

Version: 1 Type: Tab 0 ratings
1 star 2 stars 3 stars 4 stars 5 stars
comments

Cecilia Ann Tab

Pixies - Cecilia Ann
Tabbed By: Andy
EMail: Superdrew00"hotmail.com


VERSE/MAIN THEME
E--------------------------------------------------------------------
B--------------------------------------------------------------------
G--------------------------------------------------------------------
D----------------------2-----------2---2----5----------4---2----4---------
A----------------2----------------------------------------------------
E-----0---------------------------------------------------------------

[ Tab from: http://www.guitartabs.cc/tabs/p/pixies/cecilia_ann_tab.html ]
E--------------------------------------------------------------------
B--------------------------------------------------------------------
G--------------------------------------------------------------------
D--------------------------------------------------------------------
A--0-----------2--2-----0--------0---0---2----2---4--2--0------------
E--------------------------------------------------------------4----2--


This is my first tab so it probably sucks !!! 
I have only included the main theme to this song so theres no outro or anything....
Sorry everyone 
Hope you enjoy the riff though :) ----Andy----
Comments