Pixies - Brick Is Red Chords & Tabs

 

Brick Is Red Chords & Tabs

Pixies Chords & Tabs

Version: 1 Type: Tab 0 ratings
1 star 2 stars 3 stars 4 stars 5 stars
comments

Brick Is Red Tab

   
From: faureyti@inf.enst.fr (Laurent Faureytier)

			Brick Is Red
				Pixies

~ == let ring


Intro:(Corrections extremely welcome)

e---------------------------------------------------------------------------|
B--------5-5-5-..something--------------------------------------------------|
G---------------------------------------------------------------------------|
D--5-7-5------------------------5-7-5-8-8-8-8-8-8-7-7-5---------------------|
A---------------------------------------------------------------------------|
E---------------------------------------------------------------------------|

Main Part:(Sounds O.K. to me, but corrections still welcome)

e---------------17-15-12----------------------------------------------------|
B-12~~~--12~~~-----------15-12----------------------------------------------|
G-15b16--15b16-----------------14-12-------12-14-12-------------------------|
D------------------------------------12h14----------------------------------|
A---------------------------------------------------------------------------|
E---------------------------------------------------------------------------|
  ^^^^^^^^^^^^
  This is the weirdish sounding part! (sounds like "drrrrr")
[ Tab from: http://www.guitartabs.cc/tabs/p/pixies/brick_is_red_tab.html ]
e---------------17-15-12----------------------------------------------------|
B-12~~~--12~~~-----------15-12----------------------------------------------|
G-15b16--15b16-----------------14-12-------12-14-12-11-12-14----------------|
D------------------------------------12h14----------------------12----------|
A---------------------------------------------------------------------------|
E------------------------------------------------------------12~~~----------|

First time:

  G  A  C     G  A            G  A  C     G  A
e-3--5--8-----3--5------------3--5--8-----3--5---------------------------|
B-3--5--10----3--5------------3--5--10----3--5----------5-5-5------------|
G-4--6--10----4--6------------4--6--10----4--6---------------------------|
D-5--7--9-----5--7-----12-----5--7--9-----5--7----5-7-5------------------|
A-5--7--8-----5--7------------5--7--8-----5--7---------------------------|
E-3--5--8-----3--5--12~~~-----3--5--8-----3--5---------------------------|

Second time:

  G  A  C     G  A            G  A  C     G  A
e-3--5--8-----3--5------------3--5--8-----3--5-----------------------------|
B-3--5--10----3--5------------3--5--10----3--5-----------------------------|
G-4--6--10----4--6------------4--6--10----4--6-----------------------------|
D-5--7--9-----5--7-----12-----5--7--9-----5--7-----5-7-5-8-8-8-8-8-8-7-7-5-|
A-5--7--8-----5--7------------5--7--8-----5--7-----------------------------|
E-3--5--8-----3--5--12~~~-----3--5--8-----3--5-----------------------------|
Comments