Pixies - Bone Machine Chords & Tabs

 

Bone Machine Chords & Tabs

Pixies Chords & Tabs

Version: 2 Type: Bass Tab 0 ratings
1 star 2 stars 3 stars 4 stars 5 stars
comments

Bone Machine Bass Tab

   
Artist: Pixies
Song: Bone Machine
Album: Surfer Rosa
Bassist: (the one and only) Kim Deal
Writer: Black Francis

I watched the recently released DVD very carefully and noticed exactly how Kim makes
simple bassline stand out.

Let "/" indicate a slide.
[ Tab from: http://www.guitartabs.cc/tabs/p/pixies/bone_machine_btab_ver_2.html ]
Verse:
G--------------------------------------------|
D--------------------------------------------|
A-4/5-5-5-5----------------------------------|
E------------4/5-5-5-5--7/8-8-8-8--2/3-3-3-3-|

Chorus:
G----------------------------------------------|
D----------------------------------------------|
A-5---3----------------------------------------|
E---------1/3----------------------------------|

Verse 14
Chorus 1
Verse 2
Chorus 1 (after this chorus play:
E-3-3-3
to get back into the verse)
Verse 10
Chorus 1
Verse 2
Chorus 1
Verse 9
Chorus 1 (end on D)
Comments