Pivit - One Minute More Chords & Tabs

 

One Minute More Chords & Tabs

Pivit Chords & Tabs

Version: 1 Type: Tab 0 ratings
1 star 2 stars 3 stars 4 stars 5 stars
comments

One Minute More Tab

#-----------------------------------------------------------------------------#
#-- File created with Instab - http://www.pconline.com/~smcarey/instab.html --#
#-----------------------------------------------------------------------------#

Author/Artist: PIVIT
Title: ONE MINUTE MORE
Album: I DONT KNOW
Transcribed by: LEO
Email: IML30@AOL.COM

------------------------------------------------------------------------------
------------------------------------------------------------------------------
------------------------------0-----------------------------------------------
---2--2--2-3--3--3-2--2--2-0---0-3--------------------------------------------
----00-00-0-33-33-3-33-33-3-22------------------------------------------------
------------------------------------------------------------------------------
                         Repeat twice                                         
[ Tab from: http://www.guitartabs.cc/tabs/p/pivit/one_minute_more_tab.html ]
------------------------------------------------------------------------------
------------------------------------------------------------------------------
--2p-2p-2p-2p---------------5p-5p-5p-5p---------------------------------------
--2p-2p-2p-2p--3p-3p-3p-3p--5p-5p-5p-5p--5p-5p-5p-5p--------------------------
--0p-0p-0p-2p--3p-3p-3p-3p--3p-3p-3p-3p--5p-5p-5p-5p--------------------------
---------------1p-1p-1p-1p---------------3p-3p-3p-3p--------------------------
                                                                              

------------------------------------------------------------------------------
------------------------------------------------------------------------------
--2p-2p-2p-2p---------------5p-5p-5p-5p---------------------------------------
--2p-2p-2p-2p--3p-3p-3p-3p--5p-5p-5p-5p--5p-----------------------------------
--0p-0p-0p-0p--3p-3p-3p-3p--3p-3p-3p-3p--5p-----------------------------------
---------------1p-1p-1p-1p---------------3p-----------------------------------
                                         ^let ring                            

----5---7---8-----|---5---7---8---8-8-7-5-------------------------------------
--5---5---5---5-5-|-5---5---5---5---------------------------------------------
------------------|-----------------------------------------------------------
------------------|-----------------------------------------------------------
------------------|-----------------------------------------------------------
------------------|-----------------------------------------------------------
 repeat twice^       *i dont know if this part is right**this is all i know*  

Comments