Pity Sex - Finding Sleep Chords & Tabs

 

Finding Sleep Chords & Tabs

Pity Sex Chords & Tabs

Version: 1 Type: Tab 0 ratings
1 star 2 stars 3 stars 4 stars 5 stars
comments

Finding Sleep Tab

-------------------------------------------------------------------------------
                            Finding Sleep - Pity Sex
-------------------------------------------------------------------------------

you don't have to full out strum all the chords just brush them.
and play the first half once before starting this riff. this is also the verse.
e|---------------------------------------------------------------|
B|-5-3-0-3-0--5-3-0-3-0--5-3-0---3-3--3-3--3-3---3-3--3-3--3-3---|
G|-0-0-0-0-0--0-0-0-0-0--0-0-0---0-0--0-0--0-0---0-0--0-0--0-0---|
D|-2-2-2-2-2--2-2-2-2-2--2-2-2---2-2--2-2--2-2---0-0--0-0--0-0---|
A|-3-3-3-3-3--3-3-3-3-3--3-3-3---2-2--2-2--2-2---2-2--2-2--2-2---|
E|-------------------------------0-0--0-0--0-0---3-3--3-3--3-3---|

solo thing. Bass notes are in parenthesis
e|---------------------------------------------------------------------------------------|
B|-3/5-5/3-0--3/5-5/3-0--3/5-5/3-3/5-5/3-0--3/5-5/3-0-1p0--------------------------------|
G|--------------------------------------------------------2p0-2/4-2/0---2/4-2/0----------|
D|--------------------------------------------------------------------2---------2--2/5-5-|
A|-(3)-----------------------------------------------------------------------------------|
E|--------------------------------------------------------(0)----------------------------|

cont..
e|----------------------------------|
B|-----------------------------8/5--|
G|-2/4-2/0----2/4-2/0------4/7------|
D|---------2----------2p0-----------|
A|----------------------------------|
E|-(3)------------------------------|

Maybe its a sign
[ Tab from: http://www.guitartabs.cc/tabs/p/pity_sex/finding_sleep_tab.html ]
e|----------------------------------|
B|----------------------------------|
G|----------------------------------|
D|-5-5-5--2-2-2---------5-5-5--4-4--|
A|-3-3-3--0-0-0--2-2-2--7-7-7--5-5--|
E|---------------0-0-0--0-0-0--0-0--|

slowly
e|---------------------------0-------------0------------0-------|
B|-5-3-0---------5-3-0---------0----3-3-3----0---3-3-3----0-----|
G|-0-0-0---------0-0-0--------------0-0-0------0-0-0-0------0---|
D|-2-2-2---------2-2-2---0h2--------2-2-2--------0-0-0----------|
A|-3-3-3---0h2---3-3-3--------------2-2-2--------2-2-2----------|
E|----------------------------------0-0-0--------3-3-3----------|

back the the verse. 

pre breakdown.                FAILURE!!!                       those are 11's dammit
e|-----------------------|--------------------------------------------------------------------|
B|-0-0-0-0-0-0-0-0-0-0-0-|--------------------------------------------------------------------|
G|-0-0-0-0-0-0-0-0-0-0-0-|-7-7--7-7--7-xx-7-7--7-7--7-xx-1111-1111-11xx-1111-1111-11xx--4-4---|
D|-2-2-2-2-2-2-2-2-2-2-2-|-5-5--5-5--5-xx-5-5--5-5--5-xx-9-9--9-9--9-xx-9-9--9-9--9-xx--2-2---|
A|-3-3-3-3-3-3-3-3-3-3-3-|-3-3--3-3--3-xx-3-3--3-3--3-xx-7-7--7-7--7-xx-7-7--7-7--7-xx--0-0---| 
E|-----------------------|--------------------------------------------------------------------|

now just jam on these chords
e|---------------------------------------------------------------------------|
B|---------------------------------------------------------------------------|
G|-7---11--------------------------------------------------------------------|
D|-5---9---------------------------------------------------------------------|
A|-3---7---------------------------------------------------------------------|
E|---------------------------------------------------------------------------|

Comments