Pity Sex - Ever Green Chords & Tabs

 

Ever Green Chords & Tabs

Pity Sex Chords & Tabs

Version: 1 Type: Tab 0 ratings
1 star 2 stars 3 stars 4 stars 5 stars
comments

Ever Green Tab

-------------------------------------------------------------------------------
                             EVER GREEN - PITY SEX
-------------------------------------------------------------------------------
the early days before they were shoegaze

Tuning: la standarde

repeata thees

e|-------------------------------------|
B|---0----0------------0-----0---------|
G|-----0----0------------0-----0-------|
D|-------------------------------------|
A|-3----3-----3/5--5/7-----7------7----|
E|-------------------------------------|

pre chorus thing I guess

build up this chord    on the second time play this chord twice
e|-----------------------------3--|
B|-------0-0--------0----------3--|
G|-2-2-2-2-2------0-----0------0--| x 2
D|-2-2-2-2-2--0h2---------2p0--2--|
A|-0-0-0-0-0-------------------3--|
E|--------------------------------|
[ Tab from: http://www.guitartabs.cc/tabs/p/pity_sex/ever_green_tab.html ]
chorus thing.  I dont know how many times to actually
strum the chords so listen to the song for guidance.
e|------------------------------------------|
B|-3--3-3-3-3-3-7-8--8-8-8-8-8--7-3---------|
G|-0--0-0-0-0-0-0-0--0-0-0-0-0--0-0---------| x a bunch
D|-2--2-2-2-2-2-7-9--9-9-9-9-9--7-2---------|
A|-3--3-3-3-3-3-5-7--7-7-7-7-7--5-3---------|
E|------------------------------------------|

play fig.1 twice, fig.2 twice, fig.1 twice, fig.2 twice

  fig.1                                    fig 2
e|----------------------------------------|-------------------------------|
B|----15/12----12/10-----10/7---7---7/8-8-|--3p0----7p0-7---7---7/8-8-----|
G|----0--0-----0---------0------0---0-----|--0------0---0---0---0---------|
D|----------------------------------------|-------------------------------|
A|-15-15-12-12-------10--10/7-7---7-------|-3----5------7-7---7-----------|
E|----------------------------------------|-------------------------------|
    
                   on the fourth time play the chords like this, it is an ugly note.
e|----------3-3-3-3-3--|-------------|----------------------------------------------------|
B|----------x-x-x-x-x--|----3-3-3-3--|-3-3-3-3-3-3-3-3-8-8-8-8-8-8-8-8-15-15-15-15-15-15--|
G|-xx-7/9-7-7-7-7-7-7--|x4--3-3-4-4--|-4-4-4-4-4-4-4-4-0-0-0-0-0-0-0-0-0--0--0--0--0--0---|
D|-xx-7/9-7-5-5-5-5-5--|----5-5-5-5--|-5-5-5-5-5-5-5-5-9-9-9-9-9-9-9-9-x--x--x--x--x--x---|
A|-xx-5/7-5-3-3-3-3-3--|----3-3-3-3--|-3-3-3-3-3-3-3-3-7-7-7-7-7-7-7-7-15-15-15-15-15-15--|
E|---------------------|-------------|----------------------------------------------------|

play the chorus thing until the end.
Comments