Pitchshifter - Wafer Thin Chords & Tabs

 

Wafer Thin Chords & Tabs

Pitchshifter Chords & Tabs

Version: 3 Type: Tab 0 ratings
1 star 2 stars 3 stars 4 stars 5 stars
comments

Wafer Thin Tab

   
Tabbed by:  Crazydrivr

Tuning: Db, Ab, Db, Gb, Bb, eb

(Note that this is the version off of the Xbox videogame Rallisport Challenge 2. I have
never listened to the actual Pitchshifter CD so I don't know if anything is different
from the videogame to the real CD.)

Intro:  with distortion
e|-------------------------------------------------------------------------|
B|-------------------------------------------------------------------------|
G|-------------------------------------------------------------------------|
D|-0h9/11--0h9/11--0h9/11--0h9/11--17-17-17-16-----------------------------|
A|-0h9/11--0h9/11--0h9/11--0h9/11--17-17-17-16-----------------------------|
D|-0h9/11--0h9/11--0h9/11--0h9/11--17-17-17-16-----------------------------|

e|-------------------------------------------------------------------------|
B|-------------------------------------------------------------------------|
G|-------------------------------------------------------------------------|
D|-0h9/11--0h9/11--0h9/11--0h9/11--5-5-5-4---------------------------------|
A|-0h9/11--0h9/11--0h9/11--0h9/11--5-5-5-4---------------------------------|
D|-0h9/11--0h9/11--0h9/11--0h9/11--5-5-5-4---------------------------------|

Verse:  Short delay like effect
e|-16-----17-----16--------------------------------------------------------|
B|----------------------16-------------------------------------------------|
G|-------------------------------------------------------------------------|
D|-------------------------------------------------------------------------|
A|-------------------------------------------------------------------------|
D|-------------------------------------------------------------------------|
[ Tab from: http://www.guitartabs.cc/tabs/p/pitchshifter/wafer_thin_tab_ver_3.html ]
pre chorus: do this 2x  with distortion
e|-------------------------------------------------------------------------|
B|-------------------------------------------------------------------------|
G|-------------------------------------------------------------------------|
D|-0--9--11----11--0--9--12----12--0--9--11----11--0--9--12----12----------|
A|-0--9--11----11--0--9--12----12--0--9--11----11--0--9--12----12----------|
D|-0--9--11----11--0--9--12----12--0--9--11----11--0--9--12----12----------|
   hold: /\        hold: /\        hold: /\        hold: /\
chorus:  with distortion
e|-------------------------------------------------------------------------|
B|-------------------------------------------------------------------------|
G|-------------------------------------------------------------------------|
D|-4-4----4--4-2-2----2--2-7-7----7--7-9-9----9-9--------------------------|
A|-4-4----4--4-2-2----2--2-7-7----7--7-9-9----9-9--------------------------|
D|-4-4----4--4-2-2----2--2-7-7----7--7-9-9----9-9--------------------------|

e|-------------------------------------------------------------------------|
B|-------------------------------------------------------------------------|
G|-------------------------------------------------------------------------|
D|-4-4----4--4-2-2----2--2-7-7----7--7-9-9----9-9-9-9----------------------|
A|-4-4----4--4-2-2----2--2-7-7----7--7-9-9----9-9-9-9----------------------|
D|-4-4----4--4-2-2----2--2-7-7----7--7-9-9----9-9-9-9----------------------|

I think there is a second guitar playing the pre-chorus palm muted while guitar
1 is playing the Verse and I couldnt figure out the guitar 2's part during the
chorus (the wah notes) but i'm working on it.

| /  slide up
| \  slide down
| h  hammer-on
| p  pull-off
| ~  vibrato
| +  harmonic
| x  Mute note
============================================================================
Comments