Pitchshifter - Wafer Thin Chords & Tabs

 

Wafer Thin Chords & Tabs

Pitchshifter Chords & Tabs

Version: 2 Type: Tab 0 ratings
1 star 2 stars 3 stars 4 stars 5 stars
comments

Wafer Thin Tab

Band - Pitchshifter
Song - Wafer Thin
Album - Deviant
Tabbed - by DEREKD


intro-verse:distortion

-------------------------------------------------------------|
-------------------------------------------------------------|
------------------7------------------------------------------|
---9---9---9---9--7--9---9---9---9--3------------------------|
---9---9---9---9--5--9---9---9---9--3------------------------|
-0-9-0-9-0-9-0-9-----9-0-9-0-9-0-9--3------------------------|

verse:clean,heres that little thing in the background

-16-17-16-14-------------------------------------------------|
-------------------------------------------------------------|
-------------------------------------------------------------|
-------------------------------------------------------------|
-------------------------------------------------------------|
-------------------------------------------------------------|
[ Tab from: http://www.guitartabs.cc/tabs/p/pitchshifter/wafer_thin_tab_ver_2.html ]
verse 2:w/dist.

-------------------------------------------------------------|
-------------------------------------------------------------|
-------------------------------------------------------------|
----9-----10-----9-----10------------------------------------|
--7-9---7-10---7-9---7-10------------------------------------|
0---9-0---10-0---9-0---10------------------------------------|

chorus:w/dist.

-------------------------------------------------------------|
-------------------------------------------------------------|
-------------------------------------------------------------|
-5--3--7--9--------------------------------------------------|
-5--3--7--9--------------------------------------------------|
-3--1--5--7--------------------------------------------------|


Im the first person to tab this song out that I know of,
so I dont know if its 100% correct.Find any mistakes just
tell me and I'll be glad to correct it. ;p
Comments