Pitchshifter - Virus Chords & Tabs

 

Virus Chords & Tabs

Pitchshifter Chords & Tabs

Version: 2 Type: Tab 0 ratings
1 star 2 stars 3 stars 4 stars 5 stars
comments

Virus Tab

"Virus" by Pitch Shifter
from Infotainment? ('96)

tuning - high to low: DAFCGD (down 1 whole step)


intro bass riff
   repeat 3x           end
F |-----------------|-----------------|-|
C |-----------------|-----------------|-|
G |-----------------|-----------------|-|
D |-5p3p0-0---0---0-|-2p0-2---2p0-2---|-|


palm muting = .
accent = ^
[ Tab from: http://www.guitartabs.cc/tabs/p/pitchshifter/virus_tab_ver_2.html ]
main riff
d |----------------------------------|----------------------------------|-|
A |----------------------------------|----------------------------------|-|
F |----------------------------------|----------------------------------|-|
C |----------------------------------|----------------------------------|-|
G |-14\-----2-------5/7-----5---5-5--|-5-------2-------2---2---2---2-2--|-|
D |-12\-----0---0-0-3/5p0---3---3-3--|-3-------0-------0---0---0---0-0--|-|
    ^       ^   . . ^       ^          ^       ^       .   .   .   . .

the end of the above riff there is this crazy syncopated rhythm with a
bunch of different variations. you have to listen to the cd and memorize it
to really get it; doesn't make much sense written out. it's just different
patterns of low D5 chords


d |----------------------------------|
A |----------------------------------|
F |----------------------------------|
C |----------------------------------|
G |-2-2-2-2-2---2-2-2-2-2------------|
D |-0-0-0-0-0---0-0-0-0-0------------|
pm  . . . . .   . . . . .  "tame?"
                           "beat." etc.
Comments