Pitchshifter - Un United Kingdom Chords & Tabs

 

Un United Kingdom Chords & Tabs

Pitchshifter Chords & Tabs

Version: 1 Type: Tab 0 ratings
1 star 2 stars 3 stars 4 stars 5 stars
comments

Un United Kingdom Tab

"Un-United Kindgom" by Pitchshifter

tuning - high to low: DAFCGD (down 1 whole step)

this song is very punkish

after the intro music detunes out, the guitar tears in with the main
riff twice, and then everything else kicks in

main riff:
d ||---------------------------------|---------------------------------|
A ||---------------------------------|---------------------------------|
F ||---------------------------------|---------------------------------|
C ||-6-6---6-6-6-6-6-6-5-5-5-4---4-4-|-6-6---6-6-6-6-6-6-3-3-3-4---4-4-|
G ||-4-4---4-4-4-4-4-4-3-3-3-2---2-2-|-4-4---4-4-4-4-4-4-1-1-1-2---2-2-|
D ||---------------------------------|---------------------------------|
    "rule Britannia!?!"

background chorus:
d ||---------------------------------|
A ||---------------------------------|
F ||---------------------------------|
C ||-6^------6^------6^-----6---6----|
G ||-------4-------4---4----4---4----|
D ||---------------------------------|

[ Tab from: http://www.guitartabs.cc/tabs/p/pitchshifter/un_united_kingdom_tab.html ]
solo (bend the string a lot and use a wah pedal):
d ||---------------------------------|---------------------------------|
A ||---------------------------------|---------------------------------|
F ||-6-6---6-6-6-6-6-6-5-5-5-4---4-4-|-6-6---6-6-6-6-6-6-3-3-3-4---4-4-|
C ||---------------------------------|---------------------------------|
G ||---------------------------------|---------------------------------|
D ||---------------------------------|---------------------------------|

d ||-10---10-10-10-10-10-11---10---6-------10---10-10-10-10-10-11---10--
A ||--------------------------------------------------------------------
F ||--------------------------------------------------------------------
C ||--------------------------------------------------------------------
G ||--------------------------------------------------------------------
D ||--------------------------------------------------------------------

d ||-/22-----10-10-10-10-11---10---6-------10---10-10-10-10-10-11-10-10-
A ||--------------------------------------------------------------------
F ||--------------------------------------------------------------------
C ||--------------------------------------------------------------------
G ||--------------------------------------------------------------------
D ||--------------------------------------------------------------------
Comments