Pistoleros - Superman Chords & Tabs

 

Superman Chords & Tabs

Pistoleros Chords & Tabs

Version: 2 Type: Tab 0 ratings
1 star 2 stars 3 stars 4 stars 5 stars
comments

Superman Tab

   
Artist: Pistoleros
Song: Superman
------------------------------------
Tabbed by: manata@purdue.edu
------------------------------------

INTRO

Guitar 1:

E|-0--------------|
B|---0------0-----|
G|-----1-2----2p1-| x 8
D|----------------|
A|----------------|
E|----------------|

Guitar 2:

E|----------------|----------------|
B|----------------|----------------|
G|-1-----1--------|-1-----2--------| x 2
D|---2------2-----|---2------2-----|
A|-----2----------|-----2----------|
E|----------------|----------------|

Guitar 1 plays it's riff 4 times alone, then guitars 1 & 2 play their riffs simultaneously.

CHORUS *Over intro riffs*

Don't you know
I am a Superman
Don't you know
I am a Superman

VERSE

a(x3 hard)

E(muted)                      a(x3 hard)
Couldn't give the world to me
E(muted)                      a(x3 hard)
All the stars and all the seas
E(muted)                      a(x3 hard)
Take the things I think I need
E(muted)       *(1)           a(x3 hard)
All my whiskey wine and mead
[ Tab from: http://www.guitartabs.cc/tabs/p/pistoleros/superman_tab_ver_2.html ]
*(1)
E|------------|
B|-9h10-9-7-5-|
G|------------|
D|------------|
A|------------|
E|------------|

CHORUS *Over intro riffs*

Don't you know
I am a Superman
Don't you know
I am a Superman

VERSE *Same as first verse*

Girl I'll never walk away
If you let me in I'll stay
Won't you let me know your plan
Will you let me be your man

CHORUS *Over intro riffs*

Don't you know
I am a Superman
Don't you know
I am a Superman
          *(2)
Don't you know
I am a Superman
Don't you know
I've done all I can

*(2)
E|---------------|
B|-5-4-2-0-------|
G|---------2-1---|
D|-------------2-|
A|---------------|
E|---------------|

BRIDGE *With Arpeggios*

C#m     Bsus
I won't tell you
Asus
nothin'
C#m          Bsus
If you don't mind
Asus    am
at all

INTRO

CHORUS to fade

-----------------------------------
Chords Used:
E ? 022100
a ? X02220
C#m ? X46654
am ? X02210
Bsus ? X24400
Asus ? X02200
------------------------------------
Any Deadhot Workshop fans out there
recognize riff *(2) from River Otis?
------------------------------------
Comments