Pistol Grip - Black Heart Chords & Tabs

 

Black Heart Chords & Tabs

Pistol Grip Chords & Tabs

Version: 1 Type: Tab 0 ratings
1 star 2 stars 3 stars 4 stars 5 stars
comments

Black Heart Tab

------------------------------------------------------------------------------- 
pistol grip - black heart 
------------------------------------------------------------------------------- 

Tabbed by mark cowburn: sk8rmarkyhotmail.com  

Intro part a 
e--------------------------------------------| 
B--------------------------------------------| 
G-66666--------------------------------------|x4 
D-66666-7------------------------------------| 
A-44444-7------------------------------------| 
E-------5------------------------------------| 

Intro part b 
e--------------------------------------------------| 
B--------------------------------------------------| 
G------9999-4444-6-6-6-----------------------------|x2 
D-7777-9999-4444-6-6-6-----------------------------| 
A-7777-7777-2222-4-4-4-----------------------------| 
E-5555---------------------------------------------| 
[ Tab from: http://www.guitartabs.cc/tabs/p/pistol_grip/black_heart_tab.html ]
Verse 
e--------------------------------------------------| 
B--------------------------------------------------| 
G-----------4-6666---------------------------------|x4 
D-7777-6666-4-6666---------------------------------| 
A-7777-6666-2-4444---------------------------------| 
E-5555-4444----------------------------------------| 

Chorus 
e--------------------------------------------------| 
B--------------------------------------------------| 
G------9999-4444-6-6-6-----------------------------|x4 
D-7777-9999-4444-6-6-6-----------------------------| 
A-7777-7777-2222-4-4-4-----------------------------| 
E-5555---------------------------------------------| 

Verse 

Chorus

Solo (guitar 2 repeats intro A 8 times then chorus
      twice through this)
      
e----9---9---9----12-----9---9---9----12----| 
B-/9---9---9---12------9---9---9---12----9--| 
G-------------------------------------------|2x 
D-------------------------------------------| 
A-------------------------------------------| 
E-------------------------------------------| 

e--------12--------12---------------12------------------| 
B-9~--12-----9~-12----9----9-----------9----------------| 
G----------------------------11^~^~------11-9-----------| 
D---------------------------------------------11--------| 
A-------------------------------------------------------| 
E-------------------------------------------------------| 

Chorus x2 then ends


Comments