Pink Noise - Sugarhigh Chords & Tabs

 

Sugarhigh Chords & Tabs

Pink Noise Chords & Tabs

Version: 1 Type: Tab 0 ratings
1 star 2 stars 3 stars 4 stars 5 stars
comments

Sugarhigh Tab

   
Artist: Pink Noise
Song Title: Sugarhigh
Album: The Boom Boom EP
Tuning: Standard (EADGBE)
Transcribed by: Chris White (shaggymoods70@yahoo.com)

One day I was bored and I went through the entire Pink Noise album and
figured out all the songs, so look out for the rest of the songs.

b-Bend as needed
~-Vibrato
h-Hammer on

RIFF ONE:

   A        F#5       D
E|-0--0-x--9--9--9-x-5-5-x-x-
B|-2--2-x-10-10-10-x-7-7-x-x-
G|-2--2-x-11-11-11-x-7-7-x-x-
D|-2--2-x-11-11-11-x-7-7-x-x-
A|-0--0-x--9--9--9-x-5-5-x-x-
E|---------------------------

RIFF TWO:

E|------------------
B|-----------let----
G|-11b--1~~---ring->
D|------------------
A|------------------
E|------------------

RIFF THREE:
[ Tab from: http://www.guitartabs.cc/tabs/p/pink_noise/sugarhigh_tab.html ]
E|--------
B|--------
G|-9b-11b-
D|--------
A|--------
E|--------

RIFF FOUR:

E|--------------------------------
B|----2-R----2------2-------------
G|-1~---E-1~-----1~---1h2--1--0h1-
D|------S-------------------------
A|------T-------------------------
E|--------------------------------

Sometimes, omit the REST.

RIFF FIVE:

E|---------------------------------------
B|-----14-----14-----14------------------
G|-13~----13~----13~----13h14--13--12h13-
D|---------------------------------------
A|---------------------------------------
E|---------------------------------------

Sorry I didn't transcribe the solo, I didn't feel like it.  You should
hopefully be able to figure out where each riff is played and how many
times, if not, i pity you.  




Any questions or comments---------Chris White(shaggymoods70@yahoo.com)





Comments