Pink Noise - Son Of The Damned Chords & Tabs

 

Son Of The Damned Chords & Tabs

Pink Noise Chords & Tabs

Version: 2 Type: Tab 0 ratings
1 star 2 stars 3 stars 4 stars 5 stars
comments

Son Of The Damned Tab

   
Artist: Pink Noise
Song Title: Son of the Damned
Album: The Boom Boom EP
Tuning: Standard (EADGBE)
Transcribed by: Chris White (shaggymoods70@yahoo.com)

One day I was bored and I went through the entire Pink Noise album and
figured out all the songs, so look out for the rest of the songs.

*Palm Mute

VERSE (Chords used):

  E5   F#5  G#5  A5   E5
E|-----------------------|
B|-----------------------|
G|-----------------------|
D|-2----4----6----7----2-|
A|-2----4----6----7----2-|
E|-0----2----4----5----0-|
   *    *    *    *    *

RIFF ONE:
   B5  C#5  B5
E|----------------|
B|----------------|
G|--4--6-6--4-4-4-|
D|--4--6-6--4-4-4-|
A|--2--4-4--2-2-2-|
E|----------------|

RIFF TWO:
   A5              B5      E5
E|-------------------------------------|
B|-------------------------------------|
G|-------------------------------------|
D|--7------7-7---7/9-9-9-9-2-2-2-2-2-2-|
A|--7------7-7---7/9-9-9-9-2-2-2-2-2-2-|
E|--5------5-5---5/7-7-7-7-0-0-0-0-0-0-|
[ Tab from: http://www.guitartabs.cc/tabs/p/pink_noise/son_of_the_damned_tab_ver_2.html ]
RIFF THREE:
    A5           B5            C#5               E5
E|-----------------------------------------------------------------|
B|-----------------------------------------------------------------|
G|-----------------------------------------------------------------|
D|--7--7-7-7-7--9-9--9-9-9-9--11-11-11-11-11-11-14--14-14-14-14-14-|
A|--7--7-7-7-7--9-9--9-9-9-9--11-11-11-11-11-11-14--14-14-14-14-14-|
E|--5--5-5-5-5--7-7--7-7-7-7--9--9--9--9--9--9--12--12-12-12-12-12-|

    A5        B5
E|-----------------------|
B|-----------------------|
G|-----------------------|
D|-7--7-7-7-7--9-let-----|
A|-7--7-7-7-7--9---------|ring->
E|-5--5-5-5-5--7---------|

RIFF FOUR:

E|------------------------|
B|------------------------|
G|------------------------|
D|-14\13-13\11-11\9-9\7-7-|
A|--x--x--x-x--x--x-x-x-x-|
E|-12\11-11\9--9\-7-7\5-5-|

RIFF FIVE:

E|------------------------|
B|------------------------|
G|------------------------|
D|-14\13-13\11-11\9-9\6-6-|
A|--x--x--x-x--x--x-x-x-x-|
E|-12\11-11\9--9\-7-7\4-4-|

RIFF SIX:

E|-------------|
B|-------------|
G|-------------|
D|-14--let-----|
A|--x----------|ring->
E|-12----------|


Sorry I didn't transcribe the solo, I didn't feel like it.  You should
hopefully be able to figure out where each riff is played and how many
times, if not, i pity you.


Any questions or comments---------Chris White(shaggymoods70@yahoo.com)
Comments