Pink Noise - Radio Maria Chords & Tabs

 

Radio Maria Chords & Tabs

Pink Noise Chords & Tabs

Version: 1 Type: Tab 0 ratings
1 star 2 stars 3 stars 4 stars 5 stars
comments

Radio Maria Tab

   
Artist: Pink Noise
Song Title: Radio Maria
Album: The Boom Boom EP
Tuning: Standard (EADGBE)
Transcribed by: Chris White (shaggymoods70@yahoo.com)

One day I was bored and I went through the entire Pink Noise album and
figured out all the songs, so look out for the rest of the songs.

b-Bend to the note played on the B string to create a unison.

INTRO "LICK," also used to begin the chorus:

E|------
B|--14--
G|--17b-
D|------
A|------
E|------

RIFF ONE(lead guitar):
                                         *
E|------------------------------------------
B|-10---8---7-----8---7--5----10----14--15--
G|-13b-11b-10b---11b-10b-8b---13b---17b-18b-
D|------------------------------------------
A|------------------------------------------
E|------------------------------------------

*The second time you play this riff, omit this note.
[ Tab from: http://www.guitartabs.cc/tabs/p/pink_noise/radio_maria_tab.html ]
Right before the distortion kicks in, the rhyhtm guitar hits a 
distorted C#5

RIFF TWO(rhythm played behind lead, also for the chorus):

This is not the rhythm, just the chords used. They are played in this
order.

   A5   F#5    G5    F#5   G5   C#5
E|---------------------------------
B|---------------------------------
G|---------------------------------
D|-7----4------5-----4-----5----11-
A|-7----4------5-----4-----5----11-
E|-5----2------3-----2-----3-----9-

During the beginning of the chorus, the lead guitar is hitting this
note over and over:

E|-----
B|-14--
G|-17b-
D|-----
A|-----
E|-----


Sorry I didn't transcribe the solo, I didn't feel like it.  You should
hopefully be able to figure out where each riff is played and how many
times, if not, i pity you.  




Any questions or comments---------Chris White(shaggymoods70@yahoo.com)






Comments