Pink Noise - Heavy Greene Chords & Tabs

 

Heavy Greene Chords & Tabs

Pink Noise Chords & Tabs

Version: 2 Type: Tab 0 ratings
1 star 2 stars 3 stars 4 stars 5 stars
comments

Heavy Greene Tab

   
Artist: Pink Noise
Song Title: Heavy Greene
Album: The Boom Boom EP
Tuning: Standard (EADGBE)
Transcribed by: Chris White (shaggymoods70@yahoo.com)

One day I was bored and I went through the entire Pink Noise album and
figured out all the songs, so look out for the rest of the songs.

RIFF ONE:

I'm not tabbing the rhythym, so just mess around with the chords and
riffs i give you.

   E
E|-0----0-|
B|-0----0-|
G|-0h1--1-|
D|-2----2-|
A|-2----2-|
E|-0----0-|

RIFF TWO:

   B5 C5    C#m
E|-------4--4-4--4-4--4--4--4-4-|
B|-------5--5-5--5-5--5--5--5-5-|
G|-4--5--6--6-6--6-6--6--6--6-6-|
D|-4--5--6--6-6--6-6--6--6--6-6-|
A|-2--3--4--4-4--4-4--4--4--4-4-|
E|------------------------------|

RIFF THREE:
[ Tab from: http://www.guitartabs.cc/tabs/p/pink_noise/heavy_greene_tab_ver_2.html ]
   E
E|-0-0-0-|
B|-0-0-0-|
G|-1-1-1-|
D|-2-2-2-|
A|-2-2-2-|
E|-0-0-0-|

RIFF FOUR:

E|-----------------|
B|-----------------|
G|-----------------|
D|-----------------|
A|-7-7-8-8-9-9-8-8-|
E|-----------------|

RIFF FIVE:
   A5               F#5            E5
E|---------------------------------------------12-12-12-12\11-11\9-|
B|---------------R--------------R---------------x--x--x--x--x--x-x-|
G|---------------E--------------E---------------9--9--9--9\-8--8\6-|
D|-7--7--7-7-7-7-S-4-4--4-4-4-4-S-2-2--2-2-2-2---------------------|
A|-7--7--7-7-7-7-T-4-4--4-4-4-4-T-2-2--2-2-2-2---------------------|
E|-5--5--5-5-5-5---2-2--2-2-2-2---0-0--0-0-0-0---------------------|

Sorry I didn't transcribe the solo, I didn't feel like it.  You should
hopefully be able to figure out where each riff is played and how many
times, if not, i pity you.


Any questions or comments---------Chris White(shaggymoods70@yahoo.com)
Comments