Pink Noise - From The Sky Chords & Tabs

 

From The Sky Chords & Tabs

Pink Noise Chords & Tabs

Version: 2 Type: Tab 0 ratings
1 star 2 stars 3 stars 4 stars 5 stars
comments

From The Sky Tab

   
Artist: Pink Noise
Song Title: From the Sky
Album: The Boom Boom EP
Tuning: Standard (EADGBE)
Transcribed by: Chris White (shaggymoods70@yahoo.com)

One day I was bored and I went through the entire Pink Noise album and
figured out all the songs, so look out for the rest of the songs.

RIFF ONE:

I'm not tabbing the picking, here's the chords he picks around with:

   D Daug5  Bm
E|-2---2----2---|
B|-3---3----3---|
G|-2---3----4---|
D|-0---0----4---|
A|----------2---|
E|--------------|

RIFF TWO:

  G5  A5       B5
E|---------------------------|
B|---------------------------|
G|---------------------------|
D|-5--7--9-9--9--9--9--9-9-9-|
A|-5--7--9-9--9--9--9--9-9-9-|
E|-3--5--7-7--7--7--7--7-7-7-|

End this riff with this chord:

  F#5
E|---
B|---
G|---
D|-4-
A|-4-
E|-2-

Then, before the verse starts, hit this pretty chord once (this is
done a couple of times throughout the song):

  Bm
E|-2-
B|-3-
G|-4-
D|-4-
A|-2-
E|---

For the chorus, just hit the intro chords.

And at the very end of the chorus, a distorted guitar goes through
B5, A5, G5, mimicing the words.

End RIFF ONE off with this riff:

   A5         C#5
E|---------------------|
B|---------------------|
G|---------------------|
D|-7-7-7-7-11-11-11-11-|
A|-7-7-7-7-11-11-11-11-|
E|-5-5-5-5--9--9--9--9-|

Now for the Chorus, or RIFF THREE...
[ Tab from: http://www.guitartabs.cc/tabs/p/pink_noise/from_the_sky_tab_ver_2.html ]
     D5                     G5         A5         B5
E|-------------------------------------------------------------------|
B|-------------------------------------------------------------------|
G|-------------------------------------------------------------------|
D|-12-12-12-12-12-12-12-12-5-5-5-5-7-7-7-7-9-9-9-9-9-9-9-9-9-9-9-9-9-|
A|-12-12-12-12-12-12-12-12-5-5-5-5-7-7-7-7-9-9-9-9-9-9-9-9-9-9-9-9-9-|
E|-10-10-10-10-10-10-10-10-3-3-3-3-5-5-5-5-7-7-7-7-7-7-7-7-7-7-7-7-7-|

E|-------|
B|-------|
G|-------|
D|-9-9-9-|
A|-9-9-9-|
E|-7-7-7-|

The rhythym guitarist plays this behind the solo:

     D5                    F#5              B5
E|--------------------------------------------------------------------|
B|--------------------------------------------------------------------|
G|--------------------------------------------------------------------|
D|-12-12--12-12-12-12-12-4-4--4-4-4-4-4-9-9--9-9-9-9-9-9-9--9-9-9-9-9-|
A|-12-12--12-12-12-12-12-4-4--4-4-4-4-4-9-9--9-9-9-9-9-9-9--9-9-9-9-9-|
E|-10-10--10-10-10-10-10-2-2--2-2-2-2-2-7-7--7-7-7-7-7-7-7--7-7-7-7-7-|

Then end it with this:

    B5      A5        G5
E|-------------------------|
B|-------------------------|
G|-------------------------|
D|-9-9-9-9-7-7-7-7-5-5-5-5-|
A|-9-9-9-9-7-7-7-7-5-5-5-5-|
E|-7-7-7-7-5-5-5-5-3-3-3-3-|

Sorry I didn't transcribe the solo-I didn't feel like it. You should
hopefully be able to figure out where each riff is played and how many
times, if not, i pity you.


Any questions or comments---------Chris White(shaggymoods70@yahoo.com)
Comments