Pink Floyd - Wots Uh The Deal Chords & Tabs

 

Wots Uh The Deal Chords & Tabs

Pink Floyd Chords & Tabs

Version: 3 Type: Tab 1 rating
1 star 2 stars 3 stars 4 stars 5 stars
comments

Wots Uh The Deal Tab

   
#----------------------------------PLEASE NOTE---------------------------------#
#This file is the author's own work and represents their interpretation of the #
#song. You may only use this file for private study, scholarship, or research. #
#------------------------------------------------------------------------------#
Pink Floyd
Wots...Uh, The Deal?

"Obscured By Clouds"

TAB




INTRO and VERSES:
e-|-------3---------|-------2---------|-------1---------|-------0---------|
B-|-----0---0-------|-----0---0-------|-----0---0-------|-----0---0-------|
G-|---0-------0---0-|---0-------0---0-|---0-------0---0-|---0-------0---0-|
D-|-5-----------5---|-4-----------4---|-3-----------3---|-2-----------2---|
A-|-----------------|-----------------|-----------------|-----------------|
E-|-----------------|-----------------|-----------------|-----------------|


e-|-------0---------|-----------------|-------2---------|-2---0-0-0-0-----||
B-|-----0---0-------|-----------------|-----1---1-------|-1---1-1-1-1-0---||
G-|---0-------0---0-|---0---0---0---0-|---2-------2---2-|-----2-2-2-2-0---||
D-|-1-----------1---|-0---1---2---1---|-0-----------0---|---0-0-0-0-0-0---||
A-|-----------------|-----------------|-----------------|-----------------||
E-|-----------------|-----------------|-----------------|-----------------||

CHORUS:
             G            G7           C      E  Am
...So let me in from the cold  Turn my lead into gold
                 G                        G7
'Cause there's a chill wind blowin' in my soul and I think I`m
         D7  D9
 growing old


SLIDE SOLO: (Tuning -  D G D G B e low to high)
[ Tab from: http://www.guitartabs.cc/tabs/p/pink_floyd/wots_uh_the_deal_tab_ver_3.html ]
  3:15                                             
e -------------------------------15-15--------------------------
B ---------12----13\12-----12/15--------13-12---------------17--
G ---9*----------------12---------------------12----12/17-------
D ---9*------------------------------------------12-12/17-------
G 7-/-12--------------------------------------------------------
D --------------------------------------------------------------
      * pick these strings lightly w/fingers as slide passes 9th fr  
     
  3:24
e ---------------------------------------------------------------
B -----------------------------------------------12-13\12--------
G ----17-\-16-\-14--------14\12/14\12--\10/-12-12---------12--12-
D (17)--------------12/14---------(12)-\10/-12--------------12---
G ---------------------------------------------------------------
D ---------------------------------------------------------------
  
  3:32                
e ---------------------------------------------------
B 12\10/12-10\7-7*---10/12--\10--10------------------
G ---------------7*-----------------9\7--9\7---------
D ----------------7--------------------------9\7-(5)-
G ---------------------------------------------------
D ---------------------------------------------------
                * Let ring


CHORUS:
        G             G7             C             Em   Am
Hear me shout come on in  What's the news, where've you been
               G                  G7                  D7  D9
'Cause there's no wind left in my soul and I've grown old

 D7 D7sus4 D7 D9 D7


CHORDS USED:
G       3 3 0 0 3 3
G7      3 2 0 0 0 1
C       x 3 2 0 1 0
Em      0 2 2 0 0 0
Am      x 0 2 2 1 0
D7      x x 0 2 1 2
D7sus4  x x 0 2 1 3
D9      x x 0 2 1 0
Comments