Pink Floyd - Wots Uh The Deal Chords & Tabs

 

Wots Uh The Deal Chords & Tabs

Pink Floyd Chords & Tabs

Version: 2 Type: Tab 1 rating
1 star 2 stars 3 stars 4 stars 5 stars
comments

Wots Uh The Deal Tab

   
#----------------------------------PLEASE NOTE---------------------------------#
#This file is the author's own work and represents their interpretation of the #
#song. You may only use this file for private study, scholarship, or research. #
#------------------------------------------------------------------------------##
From: "Steven J Schablitsky-1" 
        
                         Wots...uh the Deal
                  from the albumn Obscured by Clouds              
                           by Pink Floyd

The intro and verses of this song consist mainly of eighth notes played on
the first four strings over a descending baseline going from (G, F#, F, E,
D#, D.)

                                                                      
Intro and verses

|-------3---------|-------2---------|-------1---------|-------0---------|
|-----3---3-------|-----3---3-------|-----3---3-------|-----3---3-------|
|---4-------4---4-|---0-------0---0-|---0-------0---0-|---0-------0---0-|
|-5-----------5---|-4-----------4---|-3-----------3---|-2-----------2---|
|-----------------|-----------------|-----------------|-----------------|
|-----------------|-----------------|-----------------|-----------------|
    
   
|-------0---------|-----------------|-------2---------|-2---0-0-0-0-----|
|-----0---0-------|-----------------|-----1---1-------|-1---1-1-1-1-0---|
|---0-------0---0-|---0---0---0---0-|---2-------2---2-|-----2-2-2-2-0---|
|-1-----------1---|-0---1---2---1---|-0-----------0---|---0-0-0-0-0-0---|
|-----------------|-----------------|-----------------|-----------------|
|-----------------|-----------------|-----------------|-----------------|
                                                                             
[ Tab from: http://www.guitartabs.cc/tabs/p/pink_floyd/wots_uh_the_deal_tab_ver_2.html ]
   
   
                                                                            
   I don't know exactly how the chorus is played, but I do know the basic
chords used. Here they are: 

       G     G7(no 3rd)    C        Em        Am        D7      D7sus4      

    ---3---   ---1---   ---0---   ---0---   ---0---   ---2---   ---3---    
    ---3---   ---3---   ---1---   ---0---   ---1---   ---1---   ---1---    
    ---0---   ---0---   ---0---   ---0---   ---2---   ---2---   ---2---     
    ---0---   ---3---   ---2---   ---2---   ---2---   ---0---   ---0---
    ---2---   ---x---   ---3---   ---2---   ---0---   ---x---   ---x---
    ---3---   ---x---   ---x---   ---0---   ---x---   ---x---   ---x--- 


      D9

    ---0---
    ---1---
    ---2---
    ---0---
    ---x---
    ---x---

Chorus I
                 
             G            G7           C      E  Am
...So let me in from the cold  Turn my lead into gold

                 G                        G7                           
'Cause there's a chill wind blowin' in my soul and I think I`m        
                                                                      
         D7  D9                                                           
 growing old


C


                        From: 93003865DEC@OAK.NENE.AC.UK


Wot's... Uh The Deal (From Obscured By Clouds)

|-------------------------------------------------------------------
|-------------------------------------------------------------------
|5-----5-4-----4-3-----3-2-----2-1-----1-0-1-2-1-0-----0-0---------- (Repeat)
|-0---0-5-0---0-0-0---0-0-0---0-0-0---0-0-0-0-0-0-2---2-2-2-------2-
|--0-0-----0-0-----0-0-----0-0-----0-0-------------1-1-----1-----1--
|---3-------2-------1-------0-------0---------------2-------2---2---                                        

Comments