Pink Floyd - Wish You Were Here Chords & Tabs

 

Wish You Were Here Chords & Tabs

Pink Floyd Chords & Tabs

Version: 2 Type: Tab 42 ratings
1 star 2 stars 3 stars 4 stars 5 stars
comments

Wish You Were Here Tab

   
ARTIST: Pink Floyd
SONG: Wish You Were Here
Tabbed by : JEC147@yahoo.com

Guitar one intro 
	-This part may be absent in some versions of the song, if not it is played with 
in an electric with light distortion. On the album version the guitar has an AM radio 
like effect, it’s easy to duplicate with some light distortion and soft strumming.

---------------:--3--3--3--------------------3-3--3------
---------------:--3--3--3--------------------3-3--3------
---------------:--0--0- 0------0-------------0-0--0------  play twice
---------0--2--:------------2-----2--0-------------------
----0h2--------:-----------------------------------------
--3------------:-----------------------------------------
    second time through guitar 2 enters at dotted line     

-----------------3--3--3--------------------3-3--3-------
-----------------3--3--3--------------------3-3--3-------
-----------------0--0- 0--------------------0-0--0-------  play twice, then lightly strum 
---------0--2--------------2--0--------------------------   the G chord a couple of times, 
----0h2-------------------------2--0---------------------   go back to beginning and play 
--3------------------------------------------------------   over guitar 2's first solo.


Guitar two 1st solo( accurate )
	-accoustic
[ Tab from: http://www.guitartabs.cc/tabs/p/pink_floyd/wish_you_were_here_tab_ver_2.html ]
--------------------------------------3-/-5--5-\-3----------------------
-------3--5---3-----------------------3-/-5--5-\-3---3-/-5--5-\-3-------
--2/4-------4---4p2p0--------------------------------2-/-4--4-\-2--0----
-----------------------0-----0--0---------------------------------------
--------------------------/2--------------------------------------------
------------------------------------------------------------------------

------------------------------------------------------------------------
--3-/-5--5-\-3-------------3-----5--5b6r5p3------------3--5-------------
--2-/-4--4-\-2--4-----2/4-----4--------------4--2--4b5-------4b6--2-----
----------------5-------------------------------------------------------
------------------------------------------------------------------------
------------------------------------------------------------------------

------------------------------------------------------------------------
---------3-----5--5b6--5b6--3-------------------------------------------
---2/4------4------------------4--2--4b5---2---------------------------- 
------------------------------------------------------------------------
------------------------------------------------------------------------
------------------------------------------------------------------------

                end solo


         -The chorus is simple-


      G - C - D - Am - G - D - C - Am


  The second solo is played on a slide guitar with an alternate tuning, so i'm 
 not touchin it with a ten foot stick.....

 Email me for comments/questions JEC147@yahoo.com
Comments