Pink Floyd - Wish You Were Here Chords & Tabs

 

Wish You Were Here Chords & Tabs

Pink Floyd Chords & Tabs

Version: 10 Type: Tab 0 ratings
1 star 2 stars 3 stars 4 stars 5 stars
comments

Wish You Were Here Tab

I know its only the solo, but I didnt want to write out the whole things, so sorry.


E-------------------------------------------3/5--5/3-------------------------|
A-----3---5---3-----------------------------3/5--5/3-------------------------|
D-2/4-------4------4P2P0------------------------------3/5--5/3----3/5-5/3----|
G------------------------0------0--0------------------2/4--4/2P0--2/4-4/2P0--|
B----------------------------/2----------------------------------------------|
E----------------------------------------------------------------------------|
[ Tab from: http://www.guitartabs.cc/tabs/p/pink_floyd/wish_you_were_here_tab_ver_10.html ]
E----------------------------------------------------------------------------|
A---------3-----5-----5^1/2andback 3---3-------------3-5-----------------3-5-|
D-4---2/4----4-----------------------4-----2---4^1/2------4/6---2---2/4------|
G-5--------------------------------------------------------------------------|
B----------------------------------------------------------------------------|
E----------------------------------------------------------------------------|

E----------------------------------------------------------------------------|
A-5^fullandback-3-5----------------------------------------------------------|
D---------------------2----4^fullandback--2----------------------------------|
G----------------------------------------------------------------------------|
B----------------------------------------------------------------------------|
E----------------------------------------------------------------------------|
Comments