Pink Floyd - Wish You Were Here Chords & Tabs

 

Wish You Were Here Chords & Tabs

Pink Floyd Chords & Tabs

Version: 1 Type: Tab 5 ratings
1 star 2 stars 3 stars 4 stars 5 stars
comments

Wish You Were Here Tab

   
e:------------------------3---3--3------3--3-----------------3--3---3----3--|
B:------------------------3---3--3------3--3--------------3--3--3---3----3--|
G:--------------------0---0---0--0------------0-----------0--0--0---0-------|
D:------------0---2-------------------------------2---0---------------------|
A:-------0H2----------------------------------------------------------------|
E:--------------------------------------------------------------------------|


e:--------------------3---3---3--3---3--------------------3--3---3--3---|
B:--------------------3---3---3--3---3-----------------3--3--3---3--3---|
G:--------------------0---0---0--0---0------0----------0--0--0---0------|
D:------------0---2---------------------2-------2---0-------------------|
A:------0H2-------------------------------------------------------------|
E:----3-----------------------------------------------------------------|


e:--------------------3--3--3---3--3--3--3-----------------3--3--3---3--3--|
B:--------------------3--3--3---3--3--3--3-----------------3--3--3---3--3--|
G:--------------------0--0--0---0--0--0--0-----------------0--0--0---0-----|
D:------------0---2-------------------------2---0--------------------------|
A:-------0H2----------------------------------------2---0------------------|
E:----3--------------------------------------------------------------------|


e:--------------------3--3--3---3--3--3--3--------------------------------------|
B:--------------------3--3--3---3--3--3--3--------------------------------------|
G:--------------------0--0--0---0--0--0--0--------------------------------------|
D:------------0---2-------------------------2---0-------------------------------|
A:-------0H2-----------------------------------------2---0----------------------|
E:------------------------------------------------------------------------------|

  
e:-------------------------------------------|
B:--------3---5-----3------------------------|
G:---2/4---------4------4/2/0----------------|
D:-----------------------------0-------0--0--|
A:--------------------------------1/2--------|
E:-------------------------------------------|

          
e:---3/5--3--------------------------|
B:---3/5--3--3/5--3-----3/5--5\3--0--|
G:-----------2/4--2--0--2/4--4\2--0--|
D:-----------------------------------|
A:-----------------------------------|
E:-----------------------------------|
[ Tab from: http://www.guitartabs.cc/tabs/p/pink_floyd/wish_you_were_here_tab.html ]
	      
e:----------------------------------------------------|
B:--------3-----5--5b(7)-----3----------3--5----------|
G:---2/4-----4------------4-----2--4/6--------4/6--2--|
D:----------------------------------------------------|
A:----------------------------------------------------|
E:----------------------------------------------------|

		    
e:-----------------------------------------------|
B:-------3-----5--5b(7)--3-----3----------3------|
G:--2/4-----4---------------4-----2--2/4------0--|
D:-----------------------------------------------|
A:-----------------------------------------------|
E:-----------------------------------------------|

  
     
      C...          G...          D...          Am...
e:---0-0-0-0-0-0---3-3-3-3-3-3---2-2-2-2-2-2---0-0-0-0-0-0----------|
B:---1-1-1-1-1-1---0-0-0-0-0-0---3-3-3-3-3-3---1-1-1-1-1-1----------|
G:---0-0-0-0-0-0---0-0-0-0-0-0---2-2-2-2-2-2---2-2-2-2-2-2----------|
D:---2-2-2-2-2-2---0-0-0-0-0-0---0-0-0-0-0-0---2-2-2-2-2-2----------|
A:---3-3-3-3-3-3---2-2-2-2-2-2---0-0-0-0-0-0---0-0-0-0-0-0----------|
E:---x-x-x-x-x-x---3-3-3-3-3-3---x-x-x-x-x-x---x-x-x-x-x-x----------|
Solo:

e:--------10-10-------10-10---12-10-10----------------------------|
B:---10/12-------10/12-----------------12-------------------------|
G:----------------------------------------------------------------|
D:----------------------------------------------------------------|
A:----------------------------------------------------------------|
E:----------------------------------------------------------------|

e:---------10-10-10-12-10-----------------------------------------|
B:---10/12--------------------12p10p8-----------------------------|
G:-----------------------------------7-7---9-7--------------------|
D:---------------------------------------9------------------------|
A:----------------------------------------------------------------|
E:----------------------------------------------------------------|

e:----------------10-10-10-----------12---------------------------|
B:-----8-10-10/12---------10--12/14----14p12p10-------------------|
G:---9------------------------------------------------------------|
D:----------------------------------------------------------------|
A:----------------------------------------------------------------|
E:----------------------------------------------------------------|
                                                    
e:---------10---------------------------12------------------------|
B:---10/12----12p10p8-10-12-12-8--12/14-----14p12p10--8-----------|
G:----------------------------------------------------------------|
D:----------------------------------------------------------------|
A:----------------------------------------------------------------|
E:----------------------------------------------------------------|
Comments