Pink Floyd - Waiting For The Worms Chords & Tabs

 

Waiting For The Worms Chords & Tabs

Pink Floyd Chords & Tabs

Version: 2 Type: Bass Tab 0 ratings
1 star 2 stars 3 stars 4 stars 5 stars
comments

Waiting For The Worms Bass Tab

Song: Waiting For The Worms
Artist: Pink Floyd 
Album: The Wall 

Part 1: 
|---------------------------------|
|---------------------------------|
|-----------3----(3)--------------|
|--3----(3)--------------3--------|

Part 2:
|----------------------------------|
|----------------------------------|
|----------------------------------|
|---2-----(2)---0----3-------------|

Part 3:
|-----------------------------------|------------|
|----0------------------------------|------------|
|-------------------------2----3----|--------3---|
|--------3------3-----3-------------|-----3------|

Part 4:
|---------------------|-----------------|
|---------------------|-----------------|
|--3---2---0----------|--------2---3----|
|---------------3-----|---3-------------|

Part 5:
|----------------------------------|
|----------------------------------|
|---0--0---0---0---0---0-----------|
|-----------------------------3----|
[ Tab from: http://www.guitartabs.cc/tabs/p/pink_floyd/waiting_for_the_worms_btab_ver_2.html ]
Part 6:
|-------------------------------------|
|----0--------------------------------|
|--------------------------2----3-----|
|--------3------3------3--------------|

Part 7:
|------------------------------|------------------------------|
|------------------------------|------------------------------|
|-----3----------3--------3----|--3----2----0--------2----3---|
|-----------3---------3--------|------------------3-----------|

Part 8: 
|--------------------------------|
|--------------------------------|
|--------------------------------|
|--0---2---3----2----3-----------|


Order
Part 1 x 3
Part 2 x 1
Part 3 x 1
Part 4 x 1
Part 3 x 1
Part 4 x 1
Part 5 x 6 (some with a little reconfiguration)
Part 6 x 1
Part 7 x 1
Part 8 x 2
Part 6 x 1
Part 7 x 1
Part 8 x 15

Note: The song slightly chances (e.g. an extra beat or note added), so instead of making
a giant tab with each of those little chances, I thought it would be easier to add in the
guess work for yourselves. 
Comments