Pink Floyd - Time Chords & Tabs

 

Time Chords & Tabs

Pink Floyd Chords & Tabs

Version: 3 Type: Tab 0 ratings
1 star 2 stars 3 stars 4 stars 5 stars
comments

Time Tab

   
Time
		       	   by Pink Floyd
		    from The Dark Side Of The Moon


transcribed by Bryan Noonan (NoQuarter2)
for: Pink Floyd fans all around the world!

bend		b
hold bend	4b(6)===>(4)
slide		/ \
vibrato		~

This is my first written tab so tell me how I did...

Intro:


----------------------------------------|
----------------------------------------|
----------------------------------------|
----------------------------------------|
----------------------------------------|
---0------------------------------------|


----------------------------------------|
----------------------------------------|
----------------------------------------|
----------------------------------------|
----------------------------------------|
---2------------------------------------|


----------------------------------------|
----------------------------------------|
----------------------------------------|
----------------------------------------|
----------------------------------------|
---0------------------------------------|


----------------------------------------|
----------------------------------------|
----------------------------------------|
----------------------------------------|
----------------------------------------|
---2------------------------------------|


----------------------------------------|
----------------------------------------|
----------------------------------------|
----------------------------------------|
----------------------------------------|
---0------------------------------------|

----------------------------------------|
----------------------------------------|
----------------------------------------|
----------------------------------------|
----------------------------------------|
--0--1--2-------------------------------|


----------------------------------------|
----------------------------------------|
----------------------------------------|
----------------------------------------|
----------------------------------------|
---0------------------------------------|


----------------------------------------|
----------------------------------------|
----------------------------------------|
--------------------------2-------------|
--------------------2-------------------|
--0--1--2------------------------2------|


----------------------------------------|
----------------------------------------|
----------------------------------------|
----------------------------------------|
----------------------------------------|
---2------------------2-----------------|


----------------------------------------|
----------------------------------------|
----------------------------------------|
----------------------------------------|
---0------------------------------------|
----------------------------------------|


----------------------------------------|
----------------------------------------|
----------------------------------------|
----------------------------------------|
----------------------------------------|
--2b(3)--2--0---------------------------|


----------------------------------------|
----------------------------------------|
----------------------------------------|
----------------------------------------|
----------------------------------------|
----------------------------------------|

----------------------------------------|
----------------------------------------|
----------------------------------------|
----------------------------------------|
----------------------------------------|
--0--1--2-------------------------------|


Verse;
I just put the chords in for the verse. You'll have to listen to the
album to get the rythym. I also put the leads at the bottom. Just put the
appropriate lead in at the letter.

F#M                                       A            Asus4   A
Ticking away, the moments that make up a dull day
                                                             lead A
E                                                  F#M
You fritter and waste the hours in an off-hand way
                                                              lead b
                                             A
Kicking around on a piece of ground in your home town

E                                                   F#M
Waiting for someone or something to show the way...

Dmaj7                           Amaj7
Tired of lying in the sunshine,staying home to watch the rain
Dmaj7                           Amaj7
You are young, and life is long, and there is time to kill today
Dmaj7                       C#m7
And then one day you find, ten years have got behind you
Bm7                           E
No one told you where to run, you missed the starting gun...


solo
Use same chords as verse and chorus

--------------------------------------------------------------------------|
--------------------------------------------------------------------------|
---------------------------------4b(6)======>(5)===>(6)~~~~~~~~b(5)b(6)---|
----2b4~~~~~~~~~~~~~~~~---------------------------------------------------|
--------------------------------------------------------------------------|
--------------------------------------------------------------------------|


-------------------------------------------------|
-------------------------------------------------|
---4b(6)=======>4b2---4b(6)--4~~~~~~~~~~~~~~~----|
-------------------------------------------------|
-------------------------------------------------|
-------------------------------------------------|


---------------------------------------------5>(6)----------------|
------------------------------5-5b7b5b7b5b7------------7~~~~~~----|
------------------------/6----------------------------------------|
--4b(6)====>4~~~~~~-----------------------------------------------|
------------------------------------------------------------------|
------------------------------------------------------------------|

---------------------------------------------9--9---9--9b(10)======>9--|
-----------------------------------------------------------------------|
---4b(6)==========>4b2-----4b(6)------6/9----9--9---9------------------|
-----------------------------------------------------------------------|
-----------------------------------------------------------------------|
-----------------------------------------------------------------------|

[ Tab from: http://www.guitartabs.cc/tabs/p/pink_floyd/time_tab_ver_3.html ]
-------------------------------------------------------------------------------|
--10b(12)==========>10----9~~~~~~~--9b(10)=====>9------------------------------|
-----------------------------------------------------9b(10)==>(11)==========>9-|
-------------------------------------------------------------------------------|
-------------------------------------------------------------------------------|
-------------------------------------------------------------------------------|


----------------------------------17----------------------------------|
----------14---17b(19)----17b(19)-----17b(19)==========>17---17b(19)--|
------14--------------------------------------------------------------|
--/16-----------------------------------------------------------------|
----------------------------------------------------------------------|
----------------------------------------------------------------------|


--------------------------------------------------------------------------|
--17----------------------------------------------------------------------|
-------16b(18)~~~~~~~--16b(19)b16b(18)~~~~---16b(18)==========>16~~~~~~~--|
--------------------------------------------------------------------------|
--------------------------------------------------------------------------|
--------------------------------------------------------------------------|


--------------------------------------------------17b(19)-----17b(19)=====>17-|
--------15--15---14b(15)b14-------------------14------------------------------|
----16------------------------14----------------------------------------------|
----------------------------------16~~~~~~~-----------------------------------|
------------------------------------------------------------------------------|
------------------------------------------------------------------------------|


----------------------------------------------------------------------------|
----17b(19)~~~~~~~~~~~~~----(19)b17--17~~~~---------------------------------|
----------------------------------------------(17)b16b14--14---16b(18)~~~~--|
----------------------------------------------------------------------------|
----------------------------------------------------------------------------|
----------------------------------------------------------------------------|


---19b(21)===>19--19b(21)=====>19--19~~~~~~~----|
------------------------------------------------|
------------------------------------------------|
------------------------------------------------|
------------------------------------------------|
------------------------------------------------|


---16------------------------------------------------------|
-------17--------17/19~~~~~~---17b19b17---17\14~~~~~~~~~\--|
-----------16----------------------------------------------|
-----------------------------------------------------------|
-----------------------------------------------------------|
-----------------------------------------------------------|
                                                                       lead c
(E)    F#M                                                    A
And you run, and you run to catch up to catch up with the sun, but it's sinking

E                                              F#M              lead D
And racing around, to come up behind you again
                                                                 lead E
E                                                  A        Asus4   A
The sun is the same in a realative way but your older

E                                              F#M
Shorter of breath, and one day closer to death...

Dmaj7                           Amaj7
Every year is getting shorter, never seem to find the time
Dmaj7                            Amaj7
Plans that either come to naught, or half a page of scribbled lines
Dmaj7                           C#m
Hanging on in quiet desperation is the English way
Bm                                           Bm7         F
The time is gone, the song is over, thought i'd have something more to say...

leads


A

--------------------------------------|
----2----------2--------2-------------|
---4b(6)======(6)=4--2--2-------------|
----------------------------2~~~~~----|
--------------------------------------|
--------------------------------------|


b

---7/9--9--9\7--7\---|
---------------------|
---7/9--9--9\7--7\---|
---------------------|
---------------------|
---------------------|


c

------------------|
---7---5---3---2--|
------------------|
---7---5---4---2--|
------------------|
------------------|


D

-----------------------------------------------|
---2-------------------------------------------|
--4b(6)------4b(6)b4b2-----2-------------------|
------------------------4------2~~~~~~~~~~~----|
-----------------------------------------------|
-----------------------------------------------|


E

-----------------------|
----10---12----10------|
----0-----0-----0------|
----11---12----11------|
-----------------------|
-----------------------|

This begins where the rythym changes to the progression that plays over the
chorus(begins with Dmaj7)


----------------------------------------------------------|
----------7---10/12--10~~~~~---9--10---9b10b9b7\5~~~~~~---|
-----2/7--------------------------------------------------|
--4-------------------------------------------------------|
----------------------------------------------------------|
----------------------------------------------------------|


-------------------------------------------------------------|
--7/9---9----7\5-----5\2/5-----2---2-------------------------|
----------------------------------4b(6)======~~~~>4--4>(7)---|
-------------------------------------------------------------|
-------------------------------------------------------------|
-------------------------------------------------------------|


-------------------------------------------------------------------|
-------------------------------------------------------------------|
--(6)======>4--------(6)========>4b2b4b2~~~~~~--4b(6)=========>4---|
-------------------------------------------------------------------|
-------------------------------------------------------------------|
-------------------------------------------------------------------|


-------------------------------------------------------------------|
-------------------------------------------------------------------|
----4~~~~~~~~~~~~-----2~~~~~~~~~~~~--------4-----------------------|
--------------------------------------4/6-------6\4--2~~~~~~~------|
-------------------------------------------------------------------|
----------------------------------------------------------------0--|


note that most of the sustained bends are actually gradual releases.
Listen to the song to find out which of these bend are gradually released.
\m/ (**) \m/
===============================================================================
Comments