Pink Floyd - Time Breathe Reprise Chords & Tabs

 

Time Breathe Reprise Chords & Tabs

Pink Floyd Chords & Tabs

Version: 2 Type: Tab 0 ratings
1 star 2 stars 3 stars 4 stars 5 stars
comments

Time Breathe Reprise Tab

   
Pink Floyd - Time - Breathe reprise 6:00
tabbed by Jason Toop (toop420@aol.com)
should be right, greatest band of all time,
so here it is...

-0---------------------------------------------------------------------------------
-0--------------0------------------------------10---------------12-------10--------
-0--------------0-------------------------------------0----------0--------0-------
-4------------------------2----------0--/11---------------11---/12-------11---------
-2------------------------0----------0---------------------------------------------
-0-------0-------------------------------------------------------------------------

-----0---------------------0-------------------------------------------------------------------0---
-------0-------------------0--------0------------------------14—--14—--14—---14—-12—-X—--10--------
---------0----------------------------------------X------0----0----0----0----0---0---0----0-------
-----------4------------------------------2-------X----/14---14---14---14---14---12--X---11--------
-----------2---------2--------------------0------X-------------------------------------------------
--0--------0--------0------------------------------------------------------------------------------

-----0---------------7--------------------------------------------------------------------------------
-----0---------------8-----8----------0---------------------2-------------3-----2---------------
-----0-------X-------9-----9----------0-----------------2---2-------------2-----2---------------
-----2-------X-------9-----9-----2---------------2--------------------2---------2---------------
-----2-------X-------7-----7-----2---------------0--------------------0---------0---------------
-----0-----------------------------------------------------------------------------------------------
[ Tab from: http://www.guitartabs.cc/tabs/p/pink_floyd/time_breathe_reprise_tab_ver_2.html ]
--------------------------------------------------------------------------------------0-----0--
------------------------------------------------------------------10---10---10---10---12---10-------
---------------------------------------------------2---------------0----0----0----0----0----0-----
-------------------0-------------------------------2--------/11---11---11---11---11---12---11---------
-------------------2-------------------------0-----0--------------------------------------------------
------0--------x---0------------0---3b-------0-------------------------------------------------------

--------------------------------------0--------------------------10--10--10-----9------7----------
--------------------------------------0--------------------------10--10--10-----10-----8----------
----0--------------------------------------------------------6-/-11--11--11-----9------7----------
----4---------------------------2-------------2--------------------------------0-------------------
----2---------------------------2-------------0----------------------------------------------------
----0---------------------------0------------------------------------------------------------------

--------------------------------------------------------------------------------------------
--------------------------------------------0-------------------------3---------1-----------
--------------------------------------------0-------------------------2---------2-----2-----
-------------------------------------2-----------------2--------------2---2-----2------------
-------------------------------------2-----------------0------------------------------------
--0----------------------------------0-------------------------------------------------------

Outro Chords
  Cmaj7		Bm			Fmaj7
e---0--------------------------------------------------0-------
b---0-----------------------3-------------------------1--------
g---0-----------------------4-------------------------2--------
d---2-----------------------4-------------------------3--------
a---3-----------------------2-------------------------3--------
e---0----------------------------------------------------------

    G7		D7#9	D7b9	Bm
---3------------------------------------------------------------------
---3----------------6--------4------3-----------------------------------
---4----------------5--------5------4---------------------------------
---3----------------4--------4------4----------------------------------
---5----------------5--------5------2---------------------------------
---3-----------------------------------------------------------------
Comments