Pink Floyd - The Thin Ice Chords & Tabs

 

The Thin Ice Chords & Tabs

Pink Floyd Chords & Tabs

Version: 2 Type: Bass Tab 0 ratings
1 star 2 stars 3 stars 4 stars 5 stars
comments

The Thin Ice Bass Tab

The Thin Ice
by Pink Floyd
from the album The Wall
tabbed by Jérôme Melançon (melancon@crosswinds.net)

||----------------||-----------------------------------------|
||*--3-----------*||-----------5-----5--3--3--------------7--|
||*-----5--1--3--*||--3-----3-----------------3-----0--------|
||----------------||-----------------------------------------|

|----------------------------------12---12--12--12--11--11--11-11--11--|
|----------5----5--3--3------------------------------------------------|
|--3----3----------------3----0----------------------------------------|
|----------------------------------------------------------------------|

|---------------------------------------------|
|-----------5--5--3---------------------------|
|--3-----3-----------5--7--9--10-----3--5--7--|
|---------------------------------------------|

|-----------------------------------|
|-----------------------------------|
|--3-----3--1-----1--3--------0--1--|
|-----5--------1--------3--3--------|
[ Tab from: http://www.guitartabs.cc/tabs/p/pink_floyd/the_thin_ice_btab_ver_2.html ]
|----------------------------------------------------------|
|-----------10--9--7-----7---------8--10-------------------|
|--13\---3------------------10--8---------10-----10-----8--|
|----------------------------------------------------------|

|---------------------------------------------------|
|-----10p9--7-----10--9--7-----8--10------7--9--10--|
|--8------------------------8---------10------------|
|---------------------------------------------------|

 (as you claw the thin ice)
|-----------------------------|--------------------------------------|
|-----------------7-----------|--------------------------------------|
|--8-----0-----5-----0-----5--|--7-----5-----8-----7-----------------|
|-----------------------------|--------------------------0-----0--0--|

|-----------------------------------------|-----------------------|
|-----------------------------------------|-----------------------|
|--7-----5-----8-----7--------------------|--7-----5-----8-----7--|
|--------------------------0-----0--0--0--|-----------------------|

|------------------------||
|------------------------||
|--7-----8-----10-----5--||
|------------------------||

Comments