Pink Floyd - Sorrow Chords & Tabs

 

Sorrow Chords & Tabs

Pink Floyd Chords & Tabs

Version: 2 Type: Tab 1 rating
1 star 2 stars 3 stars 4 stars 5 stars
comments

Sorrow Tab

   
#----------------------------------PLEASE NOTE---------------------------------#
#This file is the author's own work and represents their interpretation of the #
#song. You may only use this file for private study, scholarship, or research. #
#------------------------------------------------------------------------------#

Pink Floyd:
Sorrow

From: 
A Momentary Lapse of Reason

Tabbed by:
D!amond

Contact:
Diamond_pf@hotmail.com

h = Hammer on - dont pluck
( ) = slide to - dont pluck
0 = open

Intro:

E---0--------------------------------------------0-----
B--------5-(7)--7-(9)-(7)-(5)---5---2---5---0----------
G------------------------------------------------------
D------------------------------------------------------
A------------------------------------------------------
e------------------------------------------------------

0r

E---0-------------------------------0------------------
B--------------------2---5---0-------------------------
G-------h2--(4)-(2)------------------------------------
D------------------------------------------------------
A------------------------------------------------------
e------------------------------------------------------

chords:
-------

[ Tab from: http://www.guitartabs.cc/tabs/p/pink_floyd/sorrow_tab_ver_2.html ]
	Em		D/E		C/E		Em2

     ---15--- 	      ---14---	     ----12---	    -----12----
     ---17---	      ---15---	     ----13---	    -----12----
     ---16---	      ---14---       ----12---	    -----12----
     --------         --------       ---------	    -----------
     --------         --------       ---------	    -----------
     --------         --------       ---------	    -----------
Em
Sweet smell of great sorrow lies over the land,

D/E
Plumes of smoke rise, and merge into the leaden sky,

C/E
A man lies and dreams, of green fields and river,

   Em
But awakes to the morning, with no reason for waking

Em
He's haunted by the memory of a lost paradise, 		
							    
	D/E
In his youthful dream, he can't be precise, 

	C/E
He's chained forever, to a world thats departed,	
							  
      Em
It's not enough, it's not enough

Em
His blood os frozen, and curdled with fright,

     D/E
His knees have trembled, and given way in the night. 
							 
     C/E
His hand is weakend with the moment of truth,

     Em
His step has faltered

and so on!
i cba to tab the lead breaks as it would take to long :p




Comments