Pink Floyd - Shine On You Crazy Diamond Chords & Tabs

 

Shine On You Crazy Diamond Chords & Tabs

Pink Floyd Chords & Tabs

Version: 2 Type: Tab 0 ratings
1 star 2 stars 3 stars 4 stars 5 stars
comments

Shine On You Crazy Diamond Tab

Shine On You Crazy Diamond 
Part 1

-------------------------------------------------------------------
----18>(20)!--18--18>(20)!-----------------------------------------
-----------------------------------15--17--17>(19)--17--17>(19)!---
-------------------------------17----------------------------------
-------------------------------------------------------------------
-------------------------------------------------------------------


-----------------------------------------------------------------------------
-----------------------------------------------------------------------------
- ---(19)>17p15--17---17>(19)!---17-17>(19)>(18)--14h15h14----14---------------
----------------------------------------------------------17---15-15----15!--
---------------------------------------------------------------------17------
-----------------------------------------------------------------------------


------------------------------------------------------------------------------
------------------------------------------------------------------------------
-----------------------------------------------------------------------17>(19)-
-17>(20)--17>(20)!=====(20)=(20)-15-17-17>(20)---17>(20)>17--15--17-17!---
-17>----
------------------------------------------------------------------------------
------------------------------------------------------------------------------


-------------------------15--18--18>(20)--18!\--------------------------------
--18--18(20)!---18>(20)-------------------------------------------------------
-------------------------------------------------(19)>17p15!------------------
-----------------------------------------------------------------------15-----
-------------------------------------------------------------------17---------
------------------------------------------------------------------------------

[ Tab from: http://www.guitartabs.cc/tabs/p/pink_floyd/shine_on_you_crazy_diamond_tab_ver_2.html ]
--------------------------------------------------------------------------
--------------------------------------------------------------------------
---------------------------------------------------------(19)>17--15--17--
- ---17!--17>(19)--17>(20)!====(20)==(17)---15--17!-------------------------
--------------------------------------------------------------------------
--------------------------------------------------------------------------


--------------------------------15---------------------------------------------
-------------------18---18>(20)----18>(20)!\--18>(20)>18-15--------------------
-17>(19)---17>(19)------------------------------------------17>(19)!-17>(1
-17>9)>17
-------------------------------------------------------------------------------
-------------------------------------------------------------------------------
-------------------------------------------------------------------------------


---------------------------------------------------------------------------
--------------------------------------------------------------18-----------
15-17--17!\----------15----(19)>17-15-17-17>(19)!---17>(19)-------17>(19)!-
--------------15>17--------------------------------------------------------
---------------------------------------------------------------------------
---------------------------------------------------------------------------


---------15---18!-----18--20>(22)!---18>(20)>18--17--------------
-18>(20)----------15----------------------------------18----20---
-----------------------------------------------------------------
-----------------------------------------------------------------
-----------------------------------------------------------------
-----------------------------------------------------------------

===============================================================================

!   vibrato

> bend or slide(if it's a bend, the note to bend up to will be in
> parenthesis)


17>(20)==============(17)
  hold bend

17>(20)>17   bend and release


Comments