Pink Floyd - Sheep Chords & Tabs

 

Sheep Chords & Tabs

Pink Floyd Chords & Tabs

Version: 2 Type: Tab 0 ratings
1 star 2 stars 3 stars 4 stars 5 stars
comments

Sheep Tab

Pink FLoyd - Sheep (Outro)


Outro Riff Tab : Standard Tuning

It may not be the exact thing, but I managed to tab what I usually play, and I think
it's still good. Then if you think it's bullshit, mail to sachmoul@hotmail.com
(n) means that the chord is played n times...



(5)  (5)  (5)  (5)  (1 or more..) 

-12---10---9---------5v---|
-12---10---10---9----7v---| x2
-13---11---9----9----7v---|
----------------9----7v---|
--------------------------|
--------------------------|

(5)  (5)  (5)  (5)  (1or...)
[ Tab from: http://www.guitartabs.cc/tabs/p/pink_floyd/sheep_tab_ver_2.html ]
-14---10---9--------------|
-15---10---10---7----9v---|
-14---11---9----7----9v---|
----------------7----9v---|
--------------------------|
--------------------------|


(5)  (5)  (5)  (2)          v A kind of thing like this... 

-16---14---12---10-----9--|----5----------------------|
-17---15---12---10-----8--|----5----------------------|
-16---14---13---11---9__--|----6----------------------|
--------------------------|----7---7--9b--7--9bp7-7v--|
--------------------------|----7----------------------|
--------------------------|----5----------------------|



Ad libitum > Fade.
That's all folks.
Comments