Pink Floyd - Sheep Chords & Tabs

 

Sheep Chords & Tabs

Pink Floyd Chords & Tabs

Version: 1 Type: Tab 0 ratings
1 star 2 stars 3 stars 4 stars 5 stars
comments

Sheep Tab

this compleatly the correct way 100000000000%
age:12

           6-----------------------------------------------------------|
           5--------------------------------12-------------------------|
           4-----------------------------------------------------------|
           3--------------------------------------10h9----9--10--------|
           2--------------------10--12---------------------------------|
           1--9h10-9h10-9h10-10----------------------------------------|

           6-----------------------------------------------------------|
           5---10-----------10--12---12-------8--6--8--10--------------|
           4-----------------------------------------------------------|
           3---10-----------10--12---12----0--9--7--9--10--------------|
           2-----------12------------------------------------0------0--|
           1-----------------------------------------------------------|
[ Tab from: http://www.guitartabs.cc/tabs/p/pink_floyd/sheep_tab.html ]
           1------------------------------------------------------------|
           2---10----13---12--12----13/15---13----------15-15---10------|
           3-----------------------------------------12/14-12---10------|
           4-----10----14---12--12------------------------------12------|
           5-------------------------------------12---------------------|
           6------------------------------------------------------------|

           1---10h8-----------------8-----------------------------------|
           2--------10--9---8-------8---8-------------------10----------|
           3------------10-----10---9---9--9----10---9------10----------|
           4------------------------0------10---10---10-----10----------|
           5------------------------------------------------------------|
           6------------------------------------------------10----------|

           6-------------------------------------------------------------|
           5-------------------------------------------------------------|
           4-------------------0-----7----------------------0------------|
           3------------------12---------10-----9----7------5------------|
           2------------13----13-----------------------------------------|
           1--13/10-12--------12---------10-----8----7------5------------|

         "amen to that bro."that is the intro to sheep Baa Baa!
Comments