Pink Floyd - Set The Controls For The Heart Of The Sun Chords & Tabs

 

Set The Controls For The Heart Of The Sun Chords & Tabs

Pink Floyd Chords & Tabs

Version: 2 Type: Tab 0 ratings
1 star 2 stars 3 stars 4 stars 5 stars
comments

Set The Controls For The Heart Of The Sun Tab

   
Pink Floyd 
Set the controls for the heart of the sun
Tab transcribed by Eric Lingle 
e---------------------------------------------
b---------------------------------------------
g---------------------------------------------
d----2-2-2-3-2-2-0-0-0-2---2-2-2-3-2-2-0-0-0-2
a---------------------------------------------
E---------------------------------------------

e---------------------------------------------
b---------------------------------------------
g---------------------------------------------
d----2-2-2-3-2-2-0-0-0-2---2-2-2-3-2-2-0-0-0-2
a---------------------------------------------
E---------------------------------------------

e---------------------------------------------
b---------------------------------------------
g----------------------2-2-2-3-2-2-0-0-0-2----
d-2-2-2-3-2-2-0-0-0-2-------------------------
a---------------------------------------------
E---------------------------------------------

e---------------------------------------------
b---------------------------------------------
g-2-2-2-3-2-2-0-0-0-2-------------------------
d-----------------------2-2-2-3-2-2-0-0-0-2---
a---------------------------------------------
E---------------------------------------------
[ Tab from: http://www.guitartabs.cc/tabs/p/pink_floyd/set_the_controls_for_the_heart_of_the_sun_tab_ver_2.html ]
e---------------------------------------------
b---------------------------------------------
g---------------------------------------------
d2-2-2-3-2-2-0-0-0-2-2-2-2-7-5-5-3-3-3-2-2-2-2-7-5-5
a---------------------------------------------
E---------------------------------------------

e---------------------------------------------
b---------------------------------------------
g---------------------------------------------
d--3-3-3-2-0-2-2-2-3-2-2-0-0-0-2-0-2-2-2-3-2-2
a---------------------------------------------
E---------------------------------------------

e---------------------------------------------------
b---------------------------------------------------
g---------------------------------------------------
d-0-0-0-2-2-2-2-3-2-2-0-0-0-2-0-2-2-2-3-2-2-0-0-0-2-
a---------------------------------------------------
E---------------------------------------------------

e---------------------------------------------
b---------------------------------------------
g---------------------------------------------
d-0-0-0-2-0-2-2-2-2-0-2-2-2-2-----------------
a---------------------------------------------
E---------------------------------------------

e---------------------------------------------
b---------------------------------------------
g---------------------------------------------
d----2-2-2-2-0-2-2-2-2-0-2-2-2-2-0-2-0-2-2-2--play about 10 times 
a---------------------------------------------
E---------------------------------------------

e---------------------------------------------
b---------------------------------------------
g---------------------------------------------
d----2-2-2-3-2-2-0-0-0-2-0-2-2-2-2-0-2-2-2-2-0
a---------------------------------------------
E---------------------------------------------
Comments