Pink Floyd - Point Me At The Sky Chords & Tabs

 

Point Me At The Sky Chords & Tabs

Pink Floyd Chords & Tabs

Version: 1 Type: Bass Tab

Point Me At The Sky Bass Tab

Song:Point Me At The Sky (1968)
Artist: Pink Floyd
Album: The Early Singles
Tabbed by: Corporal Clegg!

Riff 1:
G| |----0~~~2~~~----|
D| |------------0~~~|
A| |3~~~------------|
E| |----------------|

Riff 2:
G| |---------------------------------|
D| |---------------------------------|
A| |-----------------45-5-5-5-4-4-4-4|
E| |2-2-2-245-5-5-5-5----------------|
[ Tab from: http://www.guitartabs.cc/tabs/p/pink_floyd/point_me_at_the_sky_btab.html ]
Riff 3:
G| |---------------------|
D| |---------------------|
A| |-5-5-5-5-------53----|
E| |---------3-3-3---53--|

Riff 4:
G| |---------------------|
D| |---------------------|
A| |---------------53----|
E| |-2-2-2-2-3-3-3---53--|

Song Order:
Riff 1 x 4
Riff 2
Riff 3
Riff 4 x 2
Riff 1 x 2
Riff 2
Riff 3
Riff 4 x 15

Towards the end of the song, during the repeating of Riff 4, Roger seems to do a high
note, but I can't figur out where it is. Enjoy the tab, and please rate!!