Pink Floyd - One Of The Few Chords & Tabs

 

One Of The Few Chords & Tabs

Pink Floyd Chords & Tabs

Version: 2 Type: Tab

One Of The Few Tab

   
-----------------------------------------------------------------------------
			     ONE OF THE FEW - Pink Floyd
-----------------------------------------------------------------------------
Tabbed by: Travis Wong
Email: travis_wong@hotmail.com

Tuning: EADGBe

Riff 1
e|--------------------------------------------------|
B|---15---15-----14---14-----12---12---10\7-7---7---|
G|--------------------------------------------------|
D|-0----0------0----0------0----0----0--------0-----|
A|--------------------------------------------------|
E|--------------------------------------------------|
[ Tab from: http://www.guitartabs.cc/tabs/p/pink_floyd/one_of_the_few_tab_ver_2.html ]
Riff 2
e|--------------------------------------------------|
B|---17---17-----15---15-----12---12---10\7-7---7---|
G|--------------------------------------------------|
D|-0----0------0----0------0----0----0--------0-----|
A|--------------------------------------------------|
E|--------------------------------------------------|

Intro: Riff 1, Riff 2.

(Riff 1)
When you're one of the few to land on your feet,
what do you do to make ends meet?  Teach.

(Riff 2)
Make 'em mad, make 'em sad, make 'em add two and two.

(Riff 1)
Oh make 'em me, make 'em you, make 'em do what you want them to.

(Riff 2)
Make them laugh, make 'em cry, make 'em lay down and die.

[x2]

| /  slide up
| \  slide down
| h  hammer-on
| p  pull-off
| ~  vibrato
| +  harmonic
| x  Mute note
=============================================================================