Pink Floyd - Mother Chords & Tabs

 

Mother Chords & Tabs

Pink Floyd Chords & Tabs

Version: 7 Type: Tab 0 ratings
1 star 2 stars 3 stars 4 stars 5 stars
comments

Mother Tab

Tuning:
           HOLD BEND                              BOTH SLIDES ARE RAPID
e|-------------------------------------------------------------------------|
B|----13(15)========---13(15)---13(14)--14H13------------------------------|
G|-12--------------------------------------------------------5--5-4--------|
D|--------------------------------------------14H13------------------------|
A|----------------------------------------------------2SLIDE7--7----5====--|
E|-------------------------------------------------------------------------|
[ Tab from: http://www.guitartabs.cc/tabs/p/pink_floyd/mother_tab_ver_7.html ]
e|--------------------------------------------------8---------10-12(14)-12(14--|
B|---------------------8--10(12)-10(12)-10(12)-10P8-----------10---------------|
G|--------------2SLIDE7-7-----------------------------9P8H9--------------------|
D|-----------------------------------------------------------------------------|
A|-3P2H3-3(5)3-----------------------------------------------------------------|
E|-----------------------------------------------------------------------------|

e|10=======--8-8(10)-8(10)-8====--8P7H8P7---------------------------------------|
B|-----------8---------------------------8--------------------------------------|
G|----------------------------------------7-5-4---------------------------------|
D|----------------------------------------------5-------------------------------|
A|------------------------------------------------------------------------------|
E|------------------------------------------------------------------------------|

Vibrato is =
Pull offs and hammer ons are P and H
===============================================================================
Comments