Pink Floyd - Mother Chords & Tabs

 

Mother Chords & Tabs

Pink Floyd Chords & Tabs

Version: 6 Type: Tab 0 ratings
1 star 2 stars 3 stars 4 stars 5 stars
comments

Mother Tab

   
Guitar 1: Acoustic (Normal Tuning)
Guitar 2: Electric (Normal Tuning w/ Dist.)

Verse 1:
G                                     C                   G
Mother do you think they'll drop the bomb?
G                                     C                   G
Mother do you think they'll like this song?
C                                            G
Mother do you think they'll try to break my balls?
D            C                                      G
Oooooooooh, Ahhhhhhhhhh, Mother should i build the wall

Verse 2:
G                               C                   G
Mother should i run for president?
G                               C                  G
Mother should i trust the government?
C                               G
Mother will they put me in the firing line?
D            C                                  G
Oooooooooh, Ahhhhhhhhhh, Is it just a waste of time?

Chorus:
G                               C
Hush now baby, baby, don't you cry
F                          C
Mama's gonna make all your nightmares come true
F                          C
Mama's gonna put all her fears into you
F                                 C
Mama's gonna keep you right here under her wing
F                              C
She wont let you fly but she might let you sing
F                      C        G
Mama's gonna keep baby cozy and warm
D         C       D       C          D
Ooh,     Babe,    Ooh,    Babe,     Ooh Babe, 
C
Of course mama's gonna help build the wall

Guitar 2:
Solo:
e-------------------|-----------------------|-------------------|
b-13--------13-13-12|-13--------------------|-------------------|
g-------------------|-------------------5---|--5\4--------------|
d-------------------|------14\13 14---------|-------------------|
a-------------------|----------------/7---7-|------5\-------3\2-|
e-------------------|-----------------------|-------------------|
[ Tab from: http://www.guitartabs.cc/tabs/p/pink_floyd/mother_tab_ver_6.html ]
e---------------------------|-------------------------|
b---------------------------|-------------------------|
g----------------------12---|-14-14----14--14---14-12-|
d--------------------3/12-12|-------------------------|
a-3------3-3-3-3-3\---------|-------------------------|
e---------------------------|-------------------------|

e-----------------------10-|--12-12---(12)(12)--10--(10)-----8-|
b-13------------------10---|--------------------------------8--|
g-------------------11-----|-------------------------------9---|
d------14\13--14--x--------|-----------------------------------|
a--------------------------|-----------------------------------|
e--------------------------|-----------------------------------|

e-10----(10)(10)8------8-7-8-7-----|-----------------------------------|
b------------------------------8---|-----------------------------------|
g------------------(0)-----------7-|-----------------------------------|
d----------------------------------|-10-9------------------------------|
a----------------------------------|----------10--(10)-----10\---------|
e----------------------------------|-----------------------------------|


Verse 3: 
G                           C                     G
Mother do you think she's good enough            for me?
G                             C                    G
Mother do you think she's dangerous              to me?
C                                G
Mother will she tear your little boy apart?
D     C                               G
Ooh,  Ahh,  Mother will she break my heart?

Chorus 2:
G                              C
Hush now baby, baby, dont you cry
F                               C
Mamas gonna check out all your girlfriends for you
F                              C
Mama won't let anyone dirty get through
F                               C
Mamas gonna wait up until you get in
F                              C
Mama will always find out where you've been
F                      C       G
Mamas gonna keep baby healthy and clean
D     C       D     C      D            C
Ooh,  Babe,  Ooh,  Babe,   Ooh Babe,  You'll always be baby to me

G                            C
Mother did it need to be so high?
Comments