Pink Floyd - Mother Chords & Tabs

 

Mother Chords & Tabs

Pink Floyd Chords & Tabs

Version: 2 Type: Tab 0 ratings
1 star 2 stars 3 stars 4 stars 5 stars
comments

Mother Tab

   
Pink Floyd
Comfortably Numb Solo 1

I love this solo, so let's all play it.....

standard tuning
distortion on electric guitar
a bit of reverb

h = hammer-on
p = pull-off
~ = vibrato
b = bend
r = return
/ = slide up or down

|------------------------------------------------
|----13b(15)----13b(15)--13-12-13----------------
|-12--------------------------------9p8h9--------
|------------------------------------------------
|------------------------------------------------
|------------------------------------------------
[ Tab from: http://www.guitartabs.cc/tabs/p/pink_floyd/mother_tab_ver_2.html ]
|----------------------------------------
|----------------------------------------
|----------------------------------------
|-----5-4--------------------------------
|-7-5-----5-----3-2-3-----(3)b5-3~~~~~---
|----------------------------------------

|-------------------------------------------------------
|---8-10b12---10b12---10b(12)-->r10p8-10b(13)-----------
|-7---------------------------------------------9p8h9---
|-------------------------------------------------------
|-------------------------------------------------------
|-------------------------------------------------------

|-12b(14)r12-10-----10b(12)r10-8-----8p7h8p7------------------
|--------------------------------------------8----------------
|----------------------------------------------7/5/4----------
|----------------------------------------------------5~~~~~---
|-------------------------------------------------------------
|-------------------------------------------------------------
Comments