Pink Floyd - Mother Chords & Tabs

 

Pink Floyd Chords & Tabs

Version: 1 Type: Tab 1 rating
1 star 2 stars 3 stars 4 stars 5 stars
comments

Mother Tab

PINK FLOYD: MOTHER         SOLO

standard tuning

key: b=bend
     r=release bend
     p=pull off
     v=vibrato

------------------------------------------------------------------------------------
------13b14----13b14r13p12-13-------------------------------------------------------
--12-----------------------------9p8--9------------5------5\4-----------------------
------------------------------------------------------------------------------------
--------------------------------------------2/7-------7--------5---3\2--3--3b4r3vvv-
------------------------------------------------------------------------------------

[ Tab from: http://www.guitartabs.cc/tabs/p/pink_floyd/mother_tab.html ]
----------------------------------------8------------------------12b14r12--10
-------10p8--10b11r10-10b11-10b11r10p8-------------------(rake)-x------------
--2/7---------------------------------------------9p8-9--------x-------------
--------------------------------------------------------------------------
--------------------------------------------------------------------------
--------------------------------------------------------------------------


---------10b12r10--8-----8p7--8p7----------------------------------
-----x-----------------------------8-------------------------------
--x------------------------------------7---6---4-------------------
---------------------------------------------------5vvvvv\---------
-------------------------------------------------------------------
-------------------------------------------------------------------
Comments