Pink Floyd - Money Chords & Tabs

 

Money Chords & Tabs

Pink Floyd Chords & Tabs

Version: 6 Type: Bass Tab 0 ratings
1 star 2 stars 3 stars 4 stars 5 stars
comments

Money Bass Tab

G:--2-2-4-------------------------------------------------------------------
D:1--------------0----------------------------------------------------------
A:--------4--0-2--2---------------------------------------------------------
E:--------------------------------------------------------------------------

G:4-4-----------------------------------------------------------------------
D:----4-------0-------------------------------------------------------------
A:------4-0-2---2-----------------------------------------------------------
E:--------------------------------------------------------------------------
[ Tab from: http://www.guitartabs.cc/tabs/p/pink_floyd/money_btab_ver_6.html ]
G:4-4-----------------------------------------------------------------------
D:----4-------0-------------------------------------------------------------
A:-----4--0-2---2-----------------------------------------------------------
E:------4-------------------------------------------------------------------

new car...

G:--------------------------------------------------------------------------
D:4-4-4---------4-3-2-----------0-------------------------------------------
A:------4---0-4-------2-----0-2---------------------------------------------
E:--------2-------------0-3-------------------------------------------------

Repeat that for the sax solo

Guitar Solo

G:--------------------------------------------------------------------------
D:--------------------------------------------------------------------------
A:2-5-4-3-------------------------------------------------------------------
E:--------------------------------------------------------------------------

There Ya Go
Listen to the song to get the exact timing!
Comments