Pink Floyd - Marooned Chords & Tabs

 

Marooned Chords & Tabs

Pink Floyd Chords & Tabs

Version: 1 Type: Tab 0 ratings
1 star 2 stars 3 stars 4 stars 5 stars
comments

Marooned Tab

 Marooned- Pink Floyd
 Tabbed by Alec Bart

 --/19-17-17\14-------12--------------/22--19-19-22-19-22^24-26-24-|
 ---~-----------12-15----15h17-17\14-------------------------------|
 ------------------------------------------------------------------|
 ------------------------------------------------------------------|
 ------------------------------------------------------------------|
 ------------------------------------------------------------------|

 |--(24)^22-21^22-21-19-17------------------------------------------|
 |-------------------------19~-19p17-19p17-19~-19-17-19-19----15-17-|
 |---------------------------------------------------------16-------|
 |------------------------------------------------------------------|
 |------------------------------------------------------------------|
 |------------------------------------------------------------------|
[ Tab from: http://www.guitartabs.cc/tabs/p/pink_floyd/marooned_tab.html ]
 |-------------------------------------------------------17^19-|
 |--15-15-17-15-17h19--17h19-17^19-17^19p15---17^19p15---------|
 |------------------------------------------16---------16------|
 |-------------------------------------------------------------|
 |-------------------------------------------------------------|
 |-------------------------------------------------------------|

 |--17-17-21^22-22-24^26-26-26-24-22p21\----/19~-19-19-17p15-14-|
 |--------------------------------------------------------------|
 |--------------------------------------------------------------|
 |--------------------------------------------------------------|
 |--------------------------------------------------------------|
 |--------------------------------------------------------------|


 |-------------------17------------14---14-17/22^24--|
 |--15-17-15-17~---17b19-17--15-17----17-------------|
 |---------------------------------------------------|
 |---------------------------------------------------|
 |---------------------------------------------------|
 |---------------------------------------------------|
Comments