Pink Floyd - Let There Be More Light Chords & Tabs

 

Let There Be More Light Chords & Tabs

Pink Floyd Chords & Tabs

Version: 1 Type: Tab 0 ratings
1 star 2 stars 3 stars 4 stars 5 stars
comments

Let There Be More Light Tab

Transcription by Sondre Maeland, Norway (msondre@hotmail.com)

Let there be more light
by pink floyd
from the album "a suacerful of secrets"

I was bored, and then i started to play something on guitar, 
and then i came up to this,the intro can be played with guitar,
i think they also use guitar in the intro. I also tabbed the main 
thingy.

enjoy :)


Intro:

riff 1:

|---------------------------------|
|---------------------------------|
|---------------------------------|
|---------------------------------|
|---------------------------------|
|0--12--0--10--0--12--0--10--0--12|

[ Tab from: http://www.guitartabs.cc/tabs/p/pink_floyd/let_there_be_more_light_tab.html ]
riff 2:
|---------------------------------|
|---------------------------------|
|---------------------------------|
|---------------------------------|
|---------------------------------|
|0-12--0--10--0--8--0--7--0--5----|


riff 3:
|----------------------------------|
|----------------------------------|
|----------------------------------|
|----------------------------------|
|----------------------------------|
|0--12--0--10--0--8--0--10--0--8---|


main thingy:
|----------------------------------|3x
|----------------------------------|
|----------------------------------|
|----------------------------------|
|------5--7--7--7/9/7--------------|
|---7------------------------------|

and then:
|----------------------------------|
|----------------------------------|
|----------------------------------|
|----------------------------------|
|------5--4p5p4p5p4p54p5-----------|
|---7------------------------------|
Comments