Pink Floyd - Julia Dream Chords & Tabs

 

Julia Dream Chords & Tabs

Pink Floyd Chords & Tabs

Version: 1 Type: Bass Tab

Julia Dream Bass Tab

   
Intro 4x
  Am     
G|---------------------|
D|---------------------|
A|0~----0~----0~----0~-|
E|---------------------|

Verse (When Vocals Start)
  Am          C    E    Am
G|-------------------------|
D|-------------------------|
A|0~----0~----3~--------0~-|
E|-----------------0~------|
[ Tab from: http://www.guitartabs.cc/tabs/p/pink_floyd/julia_dream_btab.html ]
Chorus (rhythm is easy to figure out)
Am            Dm               C       Em       Am
Julia dream, dreamboat queen, queen of all my dreams

Interlude
  G  D  F  A7 G  A7 D
G|------------------------|
D|------3~----------------|
A|---5~----0~----0~-5~-5~-|
E|3~----------3~----------|