Pink Floyd - Is There Anybody Chords & Tabs

 

Is There Anybody Chords & Tabs

Pink Floyd Chords & Tabs

Version: 1 Type: Tab 2 ratings
1 star 2 stars 3 stars 4 stars 5 stars
comments

Is There Anybody Tab

Is There Anybody Out There? - Pink Floyd
Tabbed by funnymushrooms [pezisgoodnurnot@hotmail.com]

Finger Style: i-index;m-middle;r-ring;p-pinky;/-none



Main Theme (I)


    r   p   i   /   i   p   r   p     r   m   i   /   i   m   r   m 
e|--------------0------------------|--------------0------------------|
B|----------1-------1--------------|----------1-------1--------------|
G|------2---------------2-------2--|------2---------------2-------2--|
D|--2-----------------------2------|--3-----------------------3------|
A|---------------------------------|---------------------------------|
E|---------------------------------|---------------------------------|
    1   +   2   +   3   +   4   +     1   +   2   +   3   +   4   +
    


    p   m   i   /   i   m   p   m     r   m   i   /   i   m   r   m
e|--------------0------------------|--------------0------------------|
B|----------1-------1--------------|----------1-------1--------------|
G|------2---------------2-------2--|------2---------------2-------2--|
D|--4-----------------------4------|--3-----------------------3------|
A|---------------------------------|---------------------------------|
E|---------------------------------|---------------------------------|
    1   +   2   +   3   +   4   +     1   +   2   +   3   +   4   +



    m   r   i   /   /   r   i   /     p   r   i   /   m   r   i   /
e|--------------0---------------0--|--------------0---------------0---|
B|----------1---------------1------|----------1---------------1-------|
G|------2---------------2----------|------2---------------2-----------|
D|--2---------------0--------------|----------------------------------|
A|---------------------------------|--3---------------2---------------|
E|---------------------------------|----------------------------------|
    1   +   2   +   3   +   4   +     1   +   2   +   3   +   4   +



    /   m   r   i   /   i   r   m     /   m   /   m   r   i   r   m
e|------------------0--------------|----------------------------------|
B|--------------1-------1----------|----------------------1-----------|
G|----------2---------------2------|------------------2-------2-------|
D|------2-----------------------2--|------2-------2---------------2---|
A|--0------------------------------|--0-------0-----------------------|
E|---------------------------------|----------------------------------|
    1   +   2   +   3   +   4   +     1   +   2   +   3   +   4   +



    /   m   r   i   /   i   r   m     /   m   /   m   r   i   r   m
e|------------------0--------------|----------------------------------|
B|--------------1-------1----------|----------------------1-----------|
G|----------2---------------2------|------------------2-------2-------|
D|------2-----------------------2--|------2-------2---------------2---|
A|--0------------------------------|--0-------0-----------------------|
E|---------------------------------|----------------------------------|
    1   +   2   +   3   +   4   +     1   +   2   +   3   +   4   +


Main Theme (II)


    m   r   i   /   i   r   m   r     r   m   i   /   i   m   r   m 
e|--------------0------------------|--------------0------------------|
B|----------1-------1--------------|----------1-------1--------------|
G|------2---------------2-------2--|------2---------------2-------2--|
D|--2-----------------------2------|--3-----------------------3------|
A|---------------------------------|---------------------------------|
E|---------------------------------|---------------------------------|
    1   +   2   +   3   +   4   +     1   +   2   +   3   +   4   +
    


    p   m   i   /   i   m   p   m     r   m   i   /   i   m   r   m
e|--------------0------------------|--------------0------------------|
B|----------1-------1--------------|----------1-------1--------------|
G|------2---------------2-------2--|------2---------------2-------2--|
D|--4-----------------------4------|--3-----------------------3------|
A|---------------------------------|---------------------------------|
E|---------------------------------|---------------------------------|
    1   +   2   +   3   +   4   +     1   +   2   +   3   +   4   +


[ Tab from: http://www.guitartabs.cc/tabs/p/pink_floyd/is_there_anybody_tab.html ]
    r   m   i   m   /   m   i   /     /   m   i   /   i   m   r   m
e|------------------------------0--|--------------0-------------------|
B|----------1---------------1------|----------1-------1---------------|
G|------2---------------2----------|------2---------------2-----------|
D|--3-----------2---0--------------|--0-------------------------------|
A|---------------------------------|--------------------------3---2---|
E|---------------------------------|----------------------------------|
    1   +   2   +   3   +   4   +     1   +   2   +   3   +   4   +



    /   m   r   i   /   i   r   m     /   m   /   m   r   i   r   m
e|------------------0--------------|----------------------------------|
B|--------------1-------1----------|----------------------1-----------|
G|----------2---------------2------|------------------2-------2-------|
D|------2-----------------------2--|------2-------2---------------2---|
A|--0------------------------------|--0-------0-----------------------|
E|---------------------------------|----------------------------------|
    1   +   2   +   3   +   4   +     1   +   2   +   3   +   4   +

                                                      /
                                                      i
    /   m   r   i   /   i   r   m     /   m   /   m   r 
e|------------------0--------------|------------------0---------------|
B|--------------1-------1----------|------------------1---------------|
G|----------2---------------2------|------------------2---------------|
D|------2-----------------------2--|------2-------2-------------------|
A|--0------------------------------|--0-------0-----------------------|
E|---------------------------------|----------------------------------|
    1   +   2   +   3   +   4   +     1   +   2   +   3  (+) (4) (+)


Middle Section


    r   m   /   i   /   i   /   m     m   /   /   i   p  /   p   i
e|------------------0--------------|---------------------0------------|
B|--------------1-------1----------|--------------1-H-3------3---1----|
G|----------0---------------0------|----------0-----------------------|
D|------2-----------------------2--|------0---------------------------|
A|--3------------------------------|--2-------------------------------|
E|---------------------------------|----------------------------------|
    1   +   2   +   3   +   4   +     1   +   2   +   3   +   4   +



    /   i   m   /   /   /   m         r   m   i   m   i   m   /   /
e|------------------0--------------|----------------------------------|
B|--------------0-------0----------|--5-------3-------1-------0-------|
G|----------2---------------2-/(5)-|------5-------4-------2-------0---|
D|------2--------------------------|----------------------------------|
A|--0------------------------------|----------------------------------|
E|---------------------------------|----------------------------------|
    1   +   2   +   3   +   4   +     1   +   2   +   3   +   4   +



    r   m   /   i   /   i   /   m     m   /   /   i   p  /   p   i
e|------------------0--------------|---------------------0------------|
B|--------------1-------1----------|--------------1-H-3------3---1----|
G|----------0---------------0------|----------0-----------------------|
D|------2-----------------------2--|------0---------------------------|
A|--3------------------------------|--2-------------------------------|
E|---------------------------------|----------------------------------|
    1   +   2   +   3   +   4   +     1   +   2   +   3   +   4   +



    /   m   r   /   /   /   /   r slliide r   m slide m hooooolllllddd
e|------------------0--------------|----------------------------------|
B|--------------0-------0----------|----------------------------------|
G|----------2---------------0---9//|/////17---8//////16---------------|
D|------2--------------------------|----------------------------------|
A|--0------------------------------|----------------------------------|
E|---------------------------------|----------------------------------|
    1   +   2   +   3   +   4   +     1   +   2   +   3   +   4   + 



Repeat the first 6 bars of the Main Theme (I)


Outro

    /   m   r   i       i   m   r             /mirp    [wavey strum]
e|----------------------5---7---8--|--------------12------------------|
B|--------------1-/(5)-------------|-------------10-------------------|
G|----------2----------------------|-------------9--------------------|
D|------2--------------------------|-----------10---------------------|
A|--0------------------------------|----------0-----------------------|
E|---------------------------------|----------------------------------|
    1   +   2   +   3   +   4   +

the count is off because i copied the tab from LithiumGod and just fixed a few things and the fingering 
and didn't feel like going through the whole thing and counting out beats and such.
Comments