Pink Floyd - Is There Anybody Out There Chords & Tabs

 

Is There Anybody Out There Chords & Tabs

Pink Floyd Chords & Tabs

Version: 3 Type: Tab 3 ratings
1 star 2 stars 3 stars 4 stars 5 stars
comments

Is There Anybody Out There Tab

#-----------------------------------------------------------------------------#
#-- File created with Instab - http://www.pconline.com/~smcarey/instab.html --#
#-----------------------------------------------------------------------------#

Author/Artist: Pink Floyd / Roger Waters
Title: Is there anybody out there?
Album: the wall
Transcribed by: Salvatore Spanò
Email: salspan17@virgilio.it

hey this is a simple song. You must use fingerpicking 
and  a classical guitar, then the game is done.
Let's start

------------------------------------------------------------------------------
------------------------------------------------------------------------------
----2-----2----2-----2-----2-----2------2-----2------2-----2-----2-----2------
------------------------------------------------------------------------------
-0-----0-----0----0-----0-----0-----0------0------0-----0-----0-----0---------
------------------------------------------------------------------------------
                                                                              

-------------------------------0-----------------0----------------0-----------
-----------------------------1---1-------------1---1------------1---1---------
----2-----2----2----2------2-------2----2----2-------2---2----2-------2---2---
-------------------------2-----------2-----3-----------3----4-----------4-----
-0-----0-----0---0------------------------------------------------------------
------------------------------------------------------------------------------
                                                                              

--------0---------------0-------0--------0-------0--------0----------0--------
------1---1-----------1-------1--------1-------1--------1----------1---1------
----2-------2---2---2-------2--------2-------2--------2----------2-------2----
--3-----------3---2-------0------------------------------------2-----------2--
----------------------------------3--------2-------0---------0----------------
------------------------------------------------------------------------------
                                                                              

---------0---------------0---------------0--------0---------------0-----------
-------1---1-----------1---1-----------1--------1---1-----------1---1---------
-----2-------2-------2-------2-------2--------2-------2---2---2-------2---2---
---2-----------2---2-----------2---2--------2-----------2---3-----------3-----
-0---------------0---------------0--------------------------------------------
------------------------------------------------------------------------------
                                                                              
[ Tab from: http://www.guitartabs.cc/tabs/p/pink_floyd/is_there_anybody_out_there_tab_ver_3.html ]
--------0---------------0----------------------0--------0---------------------
------1---1-----------1---1-----------1-------1-------1---1---------------1---
----2-------2---2---2-------2---2---2-------2-------2-------2-----------2-----
--4-----------4---3-----------3---3-----2p0-----2h0----------0--------2-------
--------------------------------------------------------------3--2--0---------
------------------------------------------------------------------------------
                                                                              

-0---------------0---------------0---------------0----------0-----------------
---1-----------1---1-----------1---1-----------1----------1---1---------------
-----2-------2-------2-------2-------2-------2----------0-------0--------0----
-------2---2-----------2---2-----------2---2---------2------------2----0------
---------0---------------0---------------0-----------3---------------2--------
------------------------------------------------------------------------------
                                                                              

-----0--------------0-------------7---6---4------------------0----------------
-1h3---1----------1---1--------5----4---3----2--0----------1---1-----------1h-
---------0------2-------2-----------------------0--------0-------0-------0----
--------------2-----------2----------------------------2-----------2---0------
------------0----------------------------------------3---------------2--------
------------------------------------------------------------------------------
                                                                              

---0--------------0----------8------7---------0---------------0---------------
-3---1----------1---1-----5-----5-----------1---1-----------1---1-----------1-
-------0------2-------2-------------------2-------2---2---2-------2---2---2---
------------2---------------------------2-----------2---3-----------3---4-----
----------0-------------------------------------------------------------------
------------------------------------------------------------------------------
                                                                              

--0---------------0---------------0------0-----0--------0--------0----5----7--
----1-----------1---1-----------1------1-----1--------1--------1--------------
------2---2---2-------2---2---2------2-----2--------2--------2----------------
--------4---3-----------3---2------0------------------------------------------
----------------------------------------3--------2--------0-------------------
------------------------------------------------------------------------------
                                                                              

--8--------12-----------------------------------------------------------------
-----------10-----------------------------------------------------------------
------------9-----------------------------------------------------------------
-----------10-----------------------------------------------------------------
------------------------------------------------------------------------------
------------------------------------------------------------------------------
                                                                              

Comments