Pink Floyd - Is There Anybody Out There Chords & Tabs

 

Is There Anybody Out There Chords & Tabs

Pink Floyd Chords & Tabs

Version: 1 Type: Tab 3 ratings
1 star 2 stars 3 stars 4 stars 5 stars
comments

Is There Anybody Out There Tab







Is There Anybody Out There



-

UNKNOWN { FONT-WEIGHT: bold; COLOR: black; TEXT-DECORATION:
none } A:active { FONT-WEIGHT: bold; COLOR: black;
TEXT-DECORATION: none } A:visited { FONT-WEIGHT: bold; COLOR:
black; TEXT-DECORATION: none } A:hover { FONT-WEIGHT: bold;
COLOR: black; TEXT-DECORATION: underline }  

Artist: Pink Floyd
Title: Is There Anybody Out There?
Album: The Wall
Transcribed by: Lee Murray
Email: hookerslunch@aol.com

------------------------------------------------------------------------------
------------------------------------------------------------------------------
----2-----2----2-----2-----2-----2------2-----2------2-----2-----2-----2------
------------------------------------------------------------------------------
-0-----0-----0----0-----0-----0-----0------0------0-----0-----0-----0---------
------------------------------------------------------------------------------
                                                                              

-------------------------------0-----------------0----------------0-----------
-----------------------------1---1-------------1---1------------1---1---------
----2-----2----2----2------2-------2----2----2-------2---2----2-------2---2---
-------------------------2-----------2-----3-----------3----4-----------4-----
-0-----0-----0---0------------------------------------------------------------
------------------------------------------------------------------------------
                                                                              

--------0---------------0-------0--------0-------0---------0------------------
------1---1-----------1-------1--------1-------1---------1---1-----------1----
----2-------2---2---2-------2--------2-------2---------2-------2-------2---2--
--3-----------3---2-------0--------------------------2-----------2---2--------
----------------------------------3--------2-------0---------------0----------
------------------------------------------------------------------------------
                                                                              

----------------0-----------------------------0---------------0---------------
--------------1---1-----------1-------------1---1-----------1---1-------------
----2-------2-------2-------2---2---2-----2-------2---2---2-------2---2-------
--2---2---2-----------2---2-------2---2-2-----------2---3-----------3---------
--------0---------------0-----------------------------------------------------
------------------------------------------------------------------------------
                                                                              
[ Tab from: http://www.guitartabs.cc/tabs/p/pink_floyd/is_there_anybody_out_there_tab.html ]
--------0---------------0-----------------------0-------0---------------------
------1---1-----------1---1-----------1-------1-------1---1-----------------1-
----2-------2---2---2-------2---2---2-------2-------2-------2-------------2---
--4-----------4---3-----------3---3-----2-0-------0---------------------2-----
----------------------------------------------------------------3--2--0-------
------------------------------------------------------------------------------
                                                                              

-0-------------------------------0---------------0----------0-----------------
---1-----------1---------------1---1-----------1----------1---1-----------1---
-----2-------2---2-----------2-------2-------2----------0-------0-------0-----
-------2---2-------2---2---2-----------2---2----------2-----------2---2-------
---------0-----------0---0---------------0----------3---------------2---------
------------------------------------------------------------------------------
                                                                              

-----0--------------0--------------------------------------0------------------
-------1----------1---1---3/5----3-----1----0------------1---1-----------1----
---0-----0------2-------2-----0-----0----0-----0-------0-------0-------0---0--
--------------2--------------------------------------2-----------2---2--------
------------0--------------------------------------3---------------2----------
------------------------------------------------------------------------------
                                                                              

---0--------------0----------8------7---------0---------------0---------------
-----1----------1---1----/5-----------------1---1-----------1---1-----------1-
-------0------2-------2---------7---------2-------2---2---2-------2---2---2---
------------2---------------------------2-----------2---3-----------3---4-----
----------0-------------------------------------------------------------------
------------------------------------------------------------------------------
                                                                              

--0---------------0---------------0-------0--------0---------0-------------5--
----1-----------1---1-----------1-------1--------1---------1----------1/5-----
------2---2---2-------2---2---2-------2--------2---------2----------2---------
--------4---3-----------3---2-------0-----------------------------2-----------
--------------------------------------------3---------2---------0-------------
------------------------------------------------------------------------------
                                                                              

--7-----8-----12--------------------------------------------------------------
--------------13--------------------------------------------------------------
--------------14--------------------------------------------------------------
--------------14--------------------------------------------------------------
--------------0---------------------------------------------------------------
------------------------------------------------------------------------------
                                                                              




Comments