Pink Floyd - Interstellar Overdrive Chords & Tabs

 

Interstellar Overdrive Chords & Tabs

Pink Floyd Chords & Tabs

Version: 2 Type: Tab 0 ratings
1 star 2 stars 3 stars 4 stars 5 stars
comments

Interstellar Overdrive Tab

Pink Floyd-Interstellar Overdrive.
Tabbed by David Young  VID1824@aol.com.
  
This might be a little different from the real version
but i think it sounds much better. So don't try playing along with song. If you ever get it in the right key, e-mail me. Use a little distortion on this.
[ Tab from: http://www.guitartabs.cc/tabs/p/pink_floyd/interstellar_overdrive_tab_ver_2.html ]
E-----------------------------------------------------
B-----------------------------------------------------
G-----------------------------------------------------
D--11--11-----10/11\10-----9--9-----8/9\8-----7-7-7-7-
A--11--11-----10/11\10-----9--9-----8/9\8-----7-7-7-7-
E---9---9--0---8/ 9\ 8--0--7--7--0--6/7\6--0--5-5-5-5-

                  (cont.)

E-----------------------------------------------------
B-----------------------------------------------------
G-----------------------------------------------------
D-7-7-7-7---7--6/7\6--2--4----------------------------
A-7-7-7-7---7--6/7\6--2--4----------------------------
E-5-5-5-5---5--4/5\4--0--2----------------------------

That's the basic riff. The whole song goes off into a blurred musical (i think) stage untill like 8 minutes later when the riff comes back in. 
:: Ultimate Guitar Archive :: 
http://www.ultimate-guitar.com 

Comments